The Black Mages - Those Who Fight Further tab

                            		  The Black Mages - Those Who Fight Further

Tabbed by: André Rebelo (A.K.A. And2001PT)
Contact: And2001PT@megamail.pt

Note: This tab is kinda big, so, it might be kinda hard to follow.
Also, I played this riff on the 5th fret, because I find it easier to control tone with 
notes, but you might want
to play it on the open A string since it is easier that way.

E||------------------------------|-------------------------------------|B||------------------------------|-------------------------------------|G||------------------------------|-------------------------------------|D||-----------5-------------7----|-------------------------------------|A||-----------3-------------5----|-----------6--5-----5----------------|E||--5--5--5-------5--5--5-------|--5--5--5--------8-----8--7--8----7--|
------------------------------|-------------------------------------|------------------------------|-------------------------------------|------------------------------|-------------------------------------|-----------5-------------7----|-------------------------------------|-----------3-------------5----|-----------6--5-----5----------------|--5--5--5-------5--5--5-------|--5--5--5--------8-----8--7--8----7--|
-------------------------------|------------------------------------------|-------------------------------|------------------------------------------|-------------------------------|------------------------------------------|-----------8-------------10----|------------------------------------------|-----------6--------------8----|-----------9--8------8--------------------|--8--8--8-------8--8--8--------|--8--8--8--------11-----11--10--11----10--|
-------------------------------|------------------------------------------|-------------------------------|------------------------------------------|-------------------------------|------------------------------------------|-----------8-------------10----|------------------------------------------|-----------6--------------8----|-----------9--8------8--------------------|--8--8--8-------8--8--8--------|--8--8--8--------11-----11--10--11----10--|
------------------------------|-------------------------------------|------------------------------|-------------------------------------|------------------------------|-------------------------------------|-----------5-------------7----|-------------------------------------|-----------3-------------5----|-----------6--5-----5----------------|--5--5--5-------5--5--5-------|--5--5--5--------8-----8--7--8----7--|
------------------------------|-------------------------------------|------------------------------|-------------------------------------|------------------------------|-------------------------------------|-----------5-------------7----|-------------------------------------|-----------3-------------5----|-----------6--5-----5----------------|--5--5--5-------5--5--5-------|--5--5--5--------8-----8--7--8----7--|
-------------------------------|------------------------------------------|-------------------------------|------------------------------------------|-------------------------------|------------------------------------------|-----------8-------------10----|------------------------------------------|-----------6--------------8----|-----------9--8------8--------------------|--8--8--8-------8--8--8--------|--8--8--8--------11-----11--10--11----10--|
-------------------------------|------------------------------------------|-------------------------------|------------------------------------------|-------------------------------|------------------------------------------|-----------8-------------10----|------------------------------------------|-----------6--------------8----|-----------9--8------8--------------------|--8--8--8-------8--8--8--------|--8--8--8--------11-----11--10--11----10--|
------------------------|------------------------|--------------------|------------------------|------------------------|--------------------|------------------------|------------------------|--------------------|------------------------|--5----5----------------|--------------------|--7----7-------2--------|--3----3-------5--------|--3------------5----|--5----5-------0--------|---------------3--------|--1------------3----|
--------------------|------------------------|------------------------------|--------------------|------------------------|------------------------------|--------------------|------------------------|------------------------------|--------------------|------------------------|--5----5------------7----9----|--8--------7--------|--7----7-------2--------|--3----3-------5----5----7----|--5--------4--------|--5----5-------0--------|---------------3--------------|
--------------------|--------------------|----------------------------------|--------------------|--------------------|----------------------------------|--------------------|--------------------|----------------------------------|--------------------|--------------------|--7-------------------------------|--3------------5----|--8--------7--------|--7-------------------------------|--1------------3----|--5--------4--------|--5----5--5--5--5--5--5--5--5--5--|
-----------------------------------|--------------------------------|-----------------------------------|--------------------------------|-----------------------------------|--2----2-----------2----2-------|-----------------------------------|--2----2-----------2----2-------|-----------------------------------|--0----0-----------0----0-------|--5--5--5--5--5--5--5--5--5--5/----|----------0--3--4---------------|
--------------------------------|--------------------------------|--------------------------------|--------------------------------|--2----2-----------2----2-------|--2----2-----------2----2-------|--2----2-----------2----2-------|--2----2-----------2----2-------|--0----0-----------0----0-------|--0----0-----------0----0-------|----------0--3--4---------------|----------0--3--4---------------|
----------------------------------|--------------------------------|----------------------------------|--------------------------------|--2----2-----------2--------------|--2----2-----------2----2-------|--2----2-----------2--------------|--2----2-----------2----2-------|--0----0-----------0--------------|--0----0-----------0----0-------|----------0--3--4-------0----3----|----------0--3--4---------------|
--------------------------------|--------------------------------|--------------------------------|--------------------------------|--2----2-----------2----2-------|--2----2-----------2----2-------|--2----2-----------2----2-------|--2----2-----------2----2-------|--0----0-----------0----0-------|--0----0-----------0----0-------|----------0--3--4---------------|----------0--3--4---------------|
----------------------------------|-------------------|-------------------|----------------------------------|-------------------|-------------------|--2----2-----------2---------2----|-------------------|-------------------|--2----2-----------2---------2----|-------------------|--5----------------|--0----0-----------0---------0----|--5----------------|--3----------------|----------0--3--4-------3---------|--3----------------|-------------------|
-------------------|-------------------------|-------------------|-------------------|-------------------------|-------------------|-------------------|-------------------------|-------------------|-------------------|--5-----------------5----|-------------------|--5----------------|--3--------3--3--3--3----|--7----------------|--3----------------|-------------------------|--5----------------|
-------------------|-------------------|----------------------------|-------------------|-------------------|----------------------------|-------------------|-------------------|----------------------------|--7----------------|-------------------|--------------------8-------|--5----------------|--7----------------|--8-----------------8-------|-------------------|--5----------------|--6--------6--6--6--6-------|
--------------------------------|-------------------------------|--------------------------------|-------------------------------|--------------------------------|-------------------------------|--7-----------------------------|--------------------------5----|--5----5----5--5----5--5--5--5--|--5----5--5----5--5----5--3----|--------------------------------|-------------------------------|
-------------------------------|---------------------------|-------------------------------|---------------------------|-------------------------------|---------------------------|--7----------------------------|---------------------------|--5----5----5--5----5--5----5--|--5----0----3----2p--0-----|-------------------------------|------------------------3--|
-------------------------------|-------------------------------|-------------------------------|-------------------------------|-------------------------------|-------------------------------|--2----------------------------|-------------------------------|--0----0----0--0----0--0----0--|--0----0--0----0--0----0-------|-------------------------------|--------------------------3----|
-------------------------------|----------------------|-------------------------------|----------------------|-------------------------------|----------------------|--2----------------------------|----------------------|--0----0----0--0----0--0----0--|--0----2----3----4----|-------------------------------|----------------------|
--------------------------------|-------------------------------|--------------------------------|-------------------------------|--------------------------------|-------------------------------|--7-----------------------------|--------------------------5----|--5----5----5--5----5--5--5--5--|--5----5--5----5--5----5--3----|--------------------------------|-------------------------------|
-------------------------------|---------------------------|-------------------------------|---------------------------|-------------------------------|---------------------------|--7----------------------------|---------------------------|--5----5----5--5----5--5----5--|--5----0----3----2p--0-----|-------------------------------|------------------------3--|
-------------------------------|-------------------------------|-------------------------------|-------------------------------|-------------------------------|-------------------------------|--2----------------------------|-------------------------------|--0----0----0--0----0--0----0--|--0----0--0----0--0----0-------|-------------------------------|--------------------------3----|
-------------------------------|----------------------|-------------------------------|----------------------|-------------------------------|----------------------|--2----------------------------|----------------------|--0----0----0--0----0--0----0--|--0----2----3----4----|-------------------------------|----------------------|
--------------------------------|-------------------------------|--------------------------------|-------------------------------|--------------------------------|-------------------------------|--7-----------------------------|--------------------------5----|--5----5----5--5----5--5--5--5--|--5----5--5----5--5----5--3----|--------------------------------|-------------------------------|
-------------------------------|---------------------------|-------------------------------|---------------------------|-------------------------------|---------------------------|--7----------------------------|---------------------------|--5----5----5--5----5--5----5--|--5----0----3----2p--0-----|-------------------------------|------------------------3--|
-------------------------------|-----------------------------|-------------------------------|-----------------------------|-------------------------------|-----------------------------|--2----------------------------|------------------9-----9----|--0----0----0--0----0--0----0--|--0----0--0----0--7-----7----|-------------------------------|-----------------------------|
--------------------|--------------------|------------------------------|--------------------|--------------------|------------------------------|--5--------2--------|--------------------|------------------------------|--5--------4--------|--5--------2--------|-----------5-------------7----|--3--------3--------|--2--------2--------|-----------3-------------5----|--------------------|--------------------|--5--5--5-------5--5--5-------|
-------------------------------------|------------------------------|-------------------------------------|------------------------------|-------------------------------------|------------------------------|-------------------------------------|-----------5-------------7----|-----------6--5-----5----------------|-----------3-------------5----|--5--5--5--------8-----8--7--8----7--|--5--5--5-------5--5--5-------|
-------------------------------------|-------------------------------|-------------------------------------|-------------------------------|-------------------------------------|-------------------------------|-------------------------------------|-----------8-------------10----|-----------6--5-----5----------------|-----------6--------------8----|--5--5--5--------8-----8--7--8----7--|--8--8--8-------8--8--8--------|
-------------------------------------------|-------------------------------|-------------------------------------------|-------------------------------|-------------------------------------------|-------------------------------|-------------------------------------------|-----------8-------------10----|-----------9--8------8---------------------|-----------6--------------8----|--8--8--8--------11-----11--10-10-8----10--|--8--8--8-------8--8--8--------|
Guitar Solo:
-------------------------|----------------------|--------------------------------|-------------------------|----------------------|-------------------5------------|--5b---------------------|----------------------|--5----2h--4h--5-------/9-------|----------------7-----5--|--7~------------/7----|--------------------------------|-------------------7-----|----------------------|--------------------------------|-------------------------|----------------------|--------------------------------|
---------------------------------|----------------8------------------|--10----10--L--------8h--10p--8--|--11b--------L-----11--10p--9p--8--|---------------------------------|-----------------------------------|---------------------------------|-----------------------------------|---------------------------------|-----------------------------------|---------------------------------|-----------------------------------|
------------------------------------------|------------------------------------------|--10--8p--7h--8p--5h--7--4h--5----L-------|------------------------------------------|------------------------------------------|------------------------------------------|
------------------------------------------|-------------------------------------|------------------------------------------|-------------------------------------|--10p--8p--0--8p--7p--0-------------8----|-----------4--5-----4--0--3--0--2-----|-------------------------10--8------------|--5b----7--------7-------------------|--------------------------------10--------|-------------------------------------|------------------------------------------|-------------------------------------|
----------------------------------|-----------15b----15pb----15pb----|----------------------------------|----------------------------------|----------------------------------|----------------------------------|
-------------------------------------15brb-----L--|--15pbr----L--15p--13-----------------------------|-----------------------14p--13p--12---------------|--------------------------------------------------|--------------------------------------------------|--------------------------------------------------|
--L----L----12----------------------|----------------15--14--13--12------|--------------------------------14--|------------------------------------|------------------------------------|------------------------------------|
-------------------------------------------------|-------------------------------------------------|--12--14------12------11------10------9------8~--|----------14------14------13------12-----11------|-------------------------------------------------|-------------------------------------------------|
---------------------------------|-------------------------------------|---------------------------------|------------8------------------------|--L------------------------------|---------------11p--10--8p--7--------|-----------10------8--10---------|-------------------------------10----|---------------10---------10----|--L-----------------------------------|---------------------------------|-------------------------------------|
----------------------------------------------|----------------------------------------------|--7---------10--8-----------------------------|-----9--10---------10--8--10------8-----------|------------------------------10-----10-------|----------------------------------------------|
----------------------------------------10h--11p--10--|--12-----------------|----------------------------10--12--13----------------|---------------------|----------------10--11--13----------------------------|---------------------|--8g10--12--13----------------------------------------|---------------------|------------------------------------------------------|---------------------|------------------------------------------------------|---------------------|
---------------------------------------|------------------------------------5--|--------------------2--5--2--4s--5--5--|--------2--5--2--4---------------------|--2--3---------------------------------|---------------------------------------|
---------------------------7---------8------|---------6---------8--6g8-----8--10-----10--|--5s--7-----7s--9---------------------------|--------------------------------------------|--------------------------------------------|--------------------------------------------|
------10----------------10g12----13----15----|--15br------15--15------------|--12---L--12--L----12-----------------------|-------------------------------|---------------------------------------------|------------------------------|---------------------------------------------|------------------------------|---------------------------------------------|------------------------------|---------------------------------------------|------------------------------|
--13g15--13-------------------------------------------|------------16-15-13----------------------------------|---------------------15-13-12-------------------------|------------------------------15-13-12----------------|---------------------------------------15-13----------|---------------------------------------------16-15----|
------------------------------|--------------------------|------------------------------|--------------------------|-----------------8-----10-----|--10brb--L----L--L--------|------------------------------|--------------------------|-----------10-----------------|--------------------------|--L---------------------------|--------------------------|
------------------------------------|------------------------------------|--10p--8----------------------------|----------10p--8--------------------|------------------10--8-------------|-------------------------11~--------|
---------------------------------------------------------|--17p--13--17p--12--17p--15--22p--13p--12--20p--13p--12--|---------------------------------------------------------|---------------------------------------------------------|---------------------------------------------------------|---------------------------------------------------------|
--------------------------12--13--14--15----|--13--12------12--13--15--------------------|----------14--------------------------------|--------------------------------------------|--------------------------------------------|--------------------------------------------|
--10g12------8-------------------------|-----8--------L---------|---------------8--------------------8--|------------------------|-----------------11--10--9--10--11-----|--9--L--------L--7g8----|---------------------------------------|------------------------|---------------------------------------|------------------------|---------------------------------------|------------------------|
---------------------8---------------------|--11--10----L----11-----11--10--8--10------|---------------------------------------10--|-------------------------------------------|-------------------------------------------|-------------------------------------------|
--------------------------------------|--8-----------------------------------|-----8--10------8--10br--L--L----L----|------------10------------------------|--------------------------------------|--------------------------------------|
-----------------------------------------------13---|--15~----------------|-----------------------------13-15-16-13-15-16------|---------------------|-----------12-13-15-12-13-15------------------------|---------------------|--12-13-15------------------------------------------|---------------------|----------------------------------------------------|---------------------|----------------------------------------------------|---------------------|
Now just go back to the same rhythym pattern. I know this tab might be hard to follow because of its size, but it was the best I could do. Tablature Legend ---------------- L - tied note x - dead note g - grace note > - accentuded note NH - natural harmonic AH - artificial harmonic TH - tapped harmonic SH - semi harmonic PH - pitch harmonic h - hammer on p - pull off b - bend br - bendRelease pb - preBend pbr - preBendRelease brb - bendReleaseBend n/ - tremolo bar dip n - tremolo bar dive -/n - tremolo bar Release up /n - tremolo bar inverted dip /n - tremolo bar return -n - tremolo bar Release down S - shift slide s - legato slide / - slide into from below or out of upwards - slide into from above or out of downwards ~ - vibrato W - wide vibrato tr - trill TP - tremolo picking T - tapping
Tap to rate this tab
 
# A B C D E F G H I J K L M N O P Q R S T U V W X Y Z