The Cribs – Glitters Like Gold tab

Capo on 2

Intro-(repeatedly strum chords really fast)

|-----------------------------||-----------------------------||-3------5---7----------8---2-||-3------5---7---5------8---2-||-1------3---5---5------6---0-||----------------3------------|
Verse 1
|-1--1--1-1--1--1--1-1--3--3--3-3--2--2--2-2-||-3--3--3-3--3--3--3-3--3--3--3-3--3--3--3-3-||-3--3--3-3--3--3--3-3--3--3--3-3--2--2--2-2-||--------------------------------------------||--------------------------------------------||--------------------------------------------| x2
|-1--1--1-1--1--1--1-1--3--3--3-3--5--5--5-5-||-3--3--3-3--3--3--3-3--3--3--3-3--3--3--3-3-||-3--3--3-3--3--3--3-3--3--3--3-3--2--2--2-2-||--------------------------------------------||--------------------------------------------||--------------------------------------------|
|-1--1--1-1-----------3--3--3-3--2--2--2-2-||-3--3--3-3-----------3--3--3-3--3--3--3-3-||-3--3--3-3-7-7-7-5-3-3--3--3-3--2--2--2-2-||------------------------------------------||------------------------------------------||------------------------------------------|
Bridge 1
|---------------------------------------------------------||---------------------------------------------------------||---------------------------------------------------------||---------------------------------------------------------||-----1-1---3/5--55-555-55-1-1---3-5-3-1---1-1---3-55-555-||-1h3-----3--------------------3---------3-----3----------|
|------------------------------------------------------||--------------------------------------8-8-6-6-6-------||---------5-7-5-3-----3-3---5--77--777--7-7-7-7-77-5-3-||-3-3-333---------3h5-----5----------------------------||------------------------------------------------------||------------------------------------------------------|
Chorus
|----1-----1-----------------------------------------------------------||----------------------3-----3----------4-----4-----------3-----3------||0-3---0-3---0-3---0-3---0-3---0-3--0-5---0-5---0-5---0-3---0-3---0-3/-||----------------------------------------------------------------------||----------------------------------------------------------------------||----------------------------------------------------------------------|
|-----10----10---10--10-10-10-10-10---8--8--------------||---11----11-----10--10-10-11-13-13--11-11-8-8-10-8-10b-||\12----12----12-12--12-12-12-12-12--10-10--------------||-------------------------------------------------------||-------------------------------------------------------||-------------------------------------------------------| x2
Bridge 2|--------------------||--------------------||-8----------10----2-||--------------------||--------------------||--------------------|
Verse 2
|-1--1--1-1--1--1--1-1--3--3--3-3--2--2--2-2-||-3--3--3-3--3--3--3-3--3--3--3-3--3--3--3-3-||-3--3--3-3--3--3--3-3--3--3--3-3--2--2--2-2-||--------------------------------------------||--------------------------------------------||--------------------------------------------|
|-1--1--1-1-----------3--3--3-3--2--2--2-2-||-3--3--3-3-----------3--3--3-3--3--3--3-3-||-3--3--3-3-7-7-7-5-3-3--3--3-3--2--2--2-2-||------------------------------------------||------------------------------------------||------------------------------------------|
BRIDGE 1
|---------------------------------------------------------||---------------------------------------------------------||---------------------------------------------------------||---------------------------------------------------------||-----1-1---3/5--55-555-55-1-1---3-5-3-1---1-1---3-55-555-||-1h3-----3--------------------3---------3-----3----------|
|------------------------------------------------------||--------------------------------------8-8-6-6-6-------||---------5-7-5-3-----3-3---5--77--777--7-7-7-7-77-5-3-||-3-3-333---------3h5-----5----------------------------||------------------------------------------------------||------------------------------------------------------|
Chorus
|----1-----1-----------------------------------------------------------||----------------------3-----3----------4-----4-----------3-----3------||0-3---0-3---0-3---0-3---0-3---0-3--0-5---0-5---0-5---0-3---0-3---0-3/-||----------------------------------------------------------------------||----------------------------------------------------------------------||----------------------------------------------------------------------|
|-----10----10---10--10-10-10-10-10---8--8--------------||---11----11-----10--10-10-11-13-13--11-11-8-8-10-8-10b-||\12----12----12-12--12-12-12-12-12--10-10--------------||-------------------------------------------------------||-------------------------------------------------------||-------------------------------------------------------| x2
Bridge 3|---------------||---------------||-8--7--5--2--3-||-------------3-||-------------1-||---------------|
MIDDLE (w/ chorus effect)
|---------------------------9-----||-----3--4-3------6-8-6---8---8---||-0-3---------0-7-------7---------||---------------------------------||---------------------------------||---------------------------------| x3
|----------------------||-----3--4-3------6-8--||-0-3---------0-7------||----------------------||----------------------||----------------------|
Chorus
|----1-----1-----------------------------------------------------------||----------------------3-----3----------4-----4-----------3-----3------||0-3---0-3---0-3---0-3---0-3---0-3--0-5---0-5---0-5---0-3---0-3---0-3/-||----------------------------------------------------------------------||----------------------------------------------------------------------||----------------------------------------------------------------------|
|-----10----10---10--10-10-10-10-10---8--8--------------||---11----11-----10--10-10-11-13-13--11-11-8-8-10-8-10b-||\12----12----12-12--12-12-12-12-12--10-10--------------||-------------------------------------------------------||-------------------------------------------------------||-------------------------------------------------------| x2
Outro|---------------||---------------||-8--7--5--2--3-||-------------3-||-------------1-||---------------|
Please rate this tab:
x1.0