The Crimson Armada - The Architect tab version 3

-----------------------------------------------------------------------------
	            The Architect - The Crimson Armada
-----------------------------------------------------------------------------
Tabbed by: Adrian
Email: afonda95051@gmail.com

Tuning:Drop C

Took me ages to figure this out for both guitars but here it is. Hope this is helpful and enjoy :)

KEY:
x - deaden note
* - palm mute
~ - let ring
h - hammer on
p - pull off
t - tremolo pick

--------
GUITAR 1 [LEFT]
--------

INTRO|---------------------------||---------------------------||---------------------------||---------------------------| (2x)|-000-000-000---000-000-000-||-000-000-000---000-000-000-| *** *** *** *** *** ***
|----------------------------------------------------||----------------------------------------------------||----------------------------------------------------||----------------------------------------------------| (6x)|-000-000-000---0000--0000--000-000-000---0000--0000-||-000-000-000---0000--0000--000-000-000---0000--0000-| *** *** *** **** **** *** *** *** **** ****
|--------------||--------------||--------------||--------------| (2x)|-000-000-000--||-000-000-000--|
*** *** *** VERSE 1|-------------------------------------------------------------------||-------------------------------------------------------------------||-------------------------------------------------------------------||-------------------------------------------------------------------||-8p5-8p5-8p5-7p4-7p4-7p4-10p7-10p7-10p7-8p5-8p5-8p5-12p8-12p8-12p8-||-------------------------------------------------------------------|
|-------------------------------------------------||-------------------------------------------------||-------------------------------------------------||-------------------------------------------------| (4x)|-10p7-10p7-10p7-13p10-13p10-13p10-12p8-12p8-12p8-||-------------------------------------------------|
|----------------------------||----------------------------||----------------------------||----------------------------| (4x)|-12t--10t8t-7t--4t--7t5t-1t-||----------------------------|
BRIDGE|---------------------------------||---------------------------------||-7~--6~9~---7~10~--9~12~--10~9---||-x~--x~x~---x~x~---x~x~---x~-x---| (2x)|-5~--4~7~---5~8~---7~10~--8~-7---||---------------------------------|
|--------------------------------------------||--------------------------------------------||--------------------------------------------||--------------------------------------------| (2x)|-5t--8t7t--1t--4t-1t4t--5t--8t7t--10t8t7t8t-||--------------------------------------------|
|-----------------------||-----------------------||-----------------------||-0~---0~---0~---0~-----||-0~---0~---0~---0~---0-||-0~---0~---0~---0~---0-|
*BREAKDOWN|-----------------------------|(quadruplets)|-----------------------------||-----------------------------||-----------------------------| (8x)|-0000--0000-0000--0000-0000--||-0000--0000-0000--0000-0000--| **** **** **** **** ****
VERSE 3|-------------------------------------------------------------------||-------------------------------------------------------------------||-------------------------------------------------------------------||-------------------------------------------------------------------||-8p5-8p5-8p5-7p4-7p4-7p4-10p7-10p7-10p7-8p5-8p5-8p5-12p8-12p8-12p8-||-------------------------------------------------------------------|
|----------------| |----------------------------------||----------------| |----------------------------------| 1st and 3rd |----------------|(4x) |----------------------------------| endings|----------------| |----------------------------------| |-10p7-10p7-10p7-|_ _ _ _|-13p10-13p10-13p10-12p8-12p8-12p8-||----------------| \ |----------------------------------|
\ \ |------------|
\ |------------| 2nd and 4th \ |------------| endings \|------------| |-10t-8t7t8t-| |------------|
BRIDGE|-----| |-------------------||-----| |-------------------||-----| |------14~-15~-12~--||-0---| |-0~---x~--x~--x~---|(2x)|-0---| |-0~---12~-13~-10~--||-0---| |-0~----------------| *
SICK RIFFS|---------------------| |-------------------||---------------------| |-------------------||-14------15----12----| |-7-------10---9----||-x-------x-----x-----| (2x) |-x-------x----x----| (2x) |-12------13----10----| |-5-------8----7----||----0000----00----00-| |---0000---00---00--| **** ** ** **** ** ** REPEAT LAST 2 SECTIONS 4 TIMES
|---------------------------------||---------------------------------||-7~--6~9~---7~10~--9~12~--10~9---||-x~--x~x~---x~x~---x~x~---x~-x---| (2x)|-5~--4~7~---5~8~---7~10~--8~-7---||---------------------------------|
OUTRO|-------------| |-------------||-------------||-------------||-000-000-000-||-000-000-000-|
*** *** *** |----------------------------------------------------||----------------------------------------------------||----------------------------------------------------||----------------------------------------------------| (4x)|-000-000-000---0000--0000--000-000-000---0000--0000-||-000-000-000---0000--0000--000-000-000---0000--0000-|
*** *** *** **** **** *** *** *** **** ****|-------------| |-------------||-------------||-------------||-000-000-000-||-000-000-000-| *** *** ***
-------- GUITAR 2 [RIGHT] --------
INTRO|---------------------------||---------------------------||---------------------------||---------------------------| (2x)|-000-000-000---000-000-000-||-000-000-000---000-000-000-| *** *** *** *** *** ***
|----------------------------------------------------||----------------------------------------------------||----------------------------------------------------||----------------------------------------------------| (6x)|-000-000-000---0000--0000--000-000-000---0000--0000-||-000-000-000---0000--0000--000-000-000---0000--0000-| *** *** *** **** **** *** *** *** **** ****
|--------------||--------------||--------------||--------------| (2x)|-000-000-000--||-000-000-000--| *** *** ***
VERSE 1|-------------------------------------------------------------------||-------------------------------------------------------------------||-------------------------------------------------------------------||-------------------------------------------------------------------||-8p5-8p5-8p5-7p4-7p4-7p4-10p7-10p7-10p7-8p5-8p5-8p5-12p8-12p8-12p8-||-------------------------------------------------------------------|
|-------------------------------------------------||-------------------------------------------------||-------------------------------------------------||-------------------------------------------------| (2x)|-10p7-10p7-10p7-13p10-13p10-13p10-12p8-12p8-12p8-||-------------------------------------------------|
then|-------------------------------------------------------------------||-------------------------------------------------------------------||-------------------------------------------------------------------||-7p5-7p5-7p5-5p3-5p3-5p3-8p7-8p7-8p7-7p5-7p5-7p5-10p8-10p8-10p8----|on 4th|-------------------------------------------------------------------|string|-------------------------------------------------------------------|not 5th
|-------------------------------------------------||-------------------------------------------------||-------------------------------------------------||-8p7-8p7-8p7-12p10-12p10-12p10-10p8-10p8-10p8----| (2x)|-------------------------------------------------||-------------------------------------------------|
|----------------------------||----------------------------||----------------------------||----------------------------| (4x)|-8t--7t5t-4t--7t--10t8t-7t--||----------------------------|
BRIDGE|------------------------------------||------------------------------------||-10~-9~12~--10~14~--12~12~--14~12---||-x~--x~x~---x~-x~---x~-x~---x~-x----| (2x)|-8~--7~10~--8~-12~--10~13~--12~10---||------------------------------------|
|--------------------------------------------||--------------------------------------------||--------------------------------------------||-3t--7t5t--0t--3t-0t3t--3t--7t5t---8t7t5t7t-| (2x)|--------------------------------------------||--------------------------------------------|
|-----------------------||-----------------------||-----------------------||-0~---0~---0~---0~-----||-0~---0~---0~---0~---0-||-0~---0~---0~---0~---0-|
*BREAKDOWN|-----------------------------|(quadruplets)|-----------------------------||-----------------------------||-----------------------------| (8x)|-0000--0000-0000--0000-0000--||-0000--0000-0000--0000-0000--| **** **** **** **** ****
VERSE 3|-------------------------------------------------------------------||-------------------------------------------------------------------||-------------------------------------------------------------------||-------------------------------------------------------------------||-8p5-8p5-8p5-7p4-7p4-7p4-10p7-10p7-10p7-8p5-8p5-8p5-12p8-12p8-12p8-||-------------------------------------------------------------------|
|----------------| |----------------------------------||----------------| (2x) |----------------------------------||----------------| |----------------------------------|1st |----------------| - - - - - - - |----------------------------------|ending|-10p7-10p7-10p7-| \ |-13p10-13p10-13p10-12p8-12p8-12p8-||----------------| \ |----------------------------------|
\ |-------------------------| |-------------------------|
|-------------------------|2nd ending |-------------------------| |-10t-8t7t8t--------------| |-------------------------|
then|-------------------------------------------------------------------||-------------------------------------------------------------------||-------------------------------------------------------------------||-7p5-7p5-7p5-5p3-5p3-5p3-8p7-8p7-8p7-7p5-7p5-7p5-10p8-10p8-10p8----||-------------------------------------------------------------------||-------------------------------------------------------------------|
|-------------| |-----------------------------------||-------------| (2x) |-----------------------------------|1st |-------------| - - - - - - - - |-----------------------------------|ending|-8p7-8p7-8p7-| \ |-12p10-12p10-12p10-10p8-10p8-10p8--| |-------------| \ |-----------------------------------||-------------| \ |-----------------------------------|
\ \|-------------------------| |-------------------------|
|-------------------------|2nd ending |-8t--7t5t7t--------------| |-------------------------| |-------------------------|
BRIDGE|-----| |-------------------||-----| |-------------------||-----| |------7~-10~--9~---||-0---| |-0~---x~--x~--x~---|(2x)|-0---| |-0~---5~--8~--7~---||-0---| |-0~----------------| *
SICK RIFFS|---------------------| |-------------------||---------------------| |-------------------||-7-------10----9-----| |-14----15---12-----||-x-------x-----x-----| (2x) |-x-----x----x------| (2x) |-5-------8-----7-----| |-12----13---10-----||----0000----00----00-| |---0000---00---00--| **** ** ** **** ** ** REPEAT LAST 2 SECTIONS 4 TIMES
BRIDGE|------------------------------------||------------------------------------||-10~-9~12~--10~14~--12~12~--14~12---||-x~--x~x~---x~-x~---x~-x~---x~-x----| (2x)|-8~--7~10~--8~-12~--10~13~--12~10---||------------------------------------|
OUTRO|-------------| |-------------||-------------||-------------||-000-000-000-||-000-000-000-|
*** *** *** |----------------------------------------------------||----------------------------------------------------||----------------------------------------------------||----------------------------------------------------| (4x)|-000-000-000---0000--0000--000-000-000---0000--0000-||-000-000-000---0000--0000--000-000-000---0000--0000-|
*** *** *** **** **** *** *** *** **** ****|-------------| |-------------||-------------||-------------||-000-000-000-||-000-000-000-| *** *** ***
Tap to rate this tab
 
# A B C D E F G H I J K L M N O P Q R S T U V W X Y Z