This Body tab with lyrics by The Dear Hunter - Easy chords and tabs for guitar

The Dear Hunter – This Body tab

This Body
The Dear Hunter

Drop D

Elec. Piano|------------------------------||---------8--10---------8--10--||--7--10---------7--10---------||------------------------------||------------------------------||------------------------------|
Verse 1: Dm I'm struggling on strange extremities C#m To run after a light that keeps on dimming Dm But these bones will only brittle and decay C#m While the space between my body and my mind keeps caving Bb in...
Elec. Piano (verse) C#m C#m Bb|--------------|-----|-------------------||--------------|-----|------6------10----||--6----9--10--|--6--|---------7------9--||--------------|-----|--8----------------||--------------|-----|-------------------||--------------|-----|-------------------|
Pre-Chorus: Dm C#m Oh my GOOOOOOOOOOOOOOD C# C#m Dm C#m Oh my GOOOOOOOOOOOOOOD C# C#m GOOOOD Chorus: Bb C#aug This body's not a temple, it's a prison, yeah G# yeah
Gtr. 1E|----------------------------|B|----------------------------|G|----------------------------|D|----------------------------|A|----------------------------|D|--2--4--6--0--3--5--7--0----|
Gtr. 2E|----------------------------|B|----------------------------|G|----------------------------|D|--2--4--6--0--3--5--7--0----|A|----------------------------|D|----------------------------|
Bb C#aug And every wall inside here is on fire, yeah G# yeah
Gtr. 1E|-----------------------------|B|-----------------------------|G|-----------------------------|D|-----------------------------|A|--------------------------3--|D|--2--4--6--0--3--5--7--0-----|
Gtr. 2E|-----------------------------|B|-----------------------------|G|-----------------------------|D|--2--4--6--0--3--5--7--0-----|A|--------------------------3--|D|-----------------------------|
Pre-verse:
Elec. Piano|----------------------------| |-----------------------13---||--------------12-14-15------||-----12-14-15---------------| |--15------------------------||----------------------------|
----------------------------|----------------------------|--15-13---------------------|----------------------------|--------15-14-12------------|--------------------12-14---|-----------------15-14-12---|-----------12-14-15---------|----------------------------|--15-13-15------------------|----------------------------|----------------------------|
----------------------------|-------||-----15-13------------------|-------||--15-------15-14-12---------|-------||--------------------15-14---|--12---||----------------------------|-------||----------------------------|-------||
Verse 2: Dm I've been stirred by something wretched, something weary C#m But the sentiment is starting to seduce Chorus: Bb C#aug This body's not a temple, it's a prison, yeah G# yeah
Gtr. 1E|----------------------------|B|----------------------------|G|----------------------------|D|----------------------------|A|----------------------------|D|--2--4--6--0--3--5--7--0----|
Gtr. 2E|----------------------------|B|----------------------------|G|----------------------------|D|--2--4--6--0--3--5--7--0----|A|----------------------------|D|----------------------------|
Bb C#aug And every wall inside here is on fire, yeah G# yeah
Gtr. 1E|----------------------------|B|----------------------------|G|----------------------------|D|----------------------------|A|----------------------------|D|--2--4--6--0--3--5--7--0----|
Gtr. 2E|----------------------------|B|----------------------------|G|----------------------------|D|--2--4--6--0--3--5--7--0----|A|----------------------------|D|----------------------------| Dm7 BbBut I can't say that I mind my body burning, yeahG#yeah
Gtr. 1E|----------------------------|B|----------------------------|G|----------------------------|D|----------------------------|A|----------------------------|D|--2--4--6--0--3--5--7--0----|
Gtr. 2E|----------------------------|B|----------------------------|G|----------------------------|D|--2--4--6--0--3--5--7--0----|A|----------------------------|D|----------------------------|
Bb C#aug Cause this body's not a temple it's a prison, yeah G# yeah
Gtr. 1E|----------------------------|B|----------------------------|G|----------------------------|D|----------------------------|A|----------------------------|D|--2--4--6--0--3--5--7--0----|
Gtr. 2E|----------------------------|B|----------------------------|G|----------------------------|D|--2--4--6--0--3--5--7--0----|A|----------------------------|D|----------------------------|
Bridge: Somewhere I went wrong and gave into this holy terrible mess in an attempt to do what I thought was right
|------------------------------|---------------------------------------||------------------------------|---------------------------------------||------------------------------|---------------------------------------||------------------------------|---------------------------------------||------------------------------|---------------------------------------||--7---7---7-7---7---7---9-10--|--7---6---10---4-5---11---3---9-10-12--|
------------------------------------|------------------------------------|------------------------------------|------------------------------------|------------------------------------|--7---7---7---7-7---7---7---7-8-10--|
br00tal hardc0re dancing:
|------------------------------|---------------------||------------------------------|---------------------||------------------------------|---------------------||------------------------------|---------------------| x2 |------------------------------|---------------------||--12-0-0-12-0-0-9-0-0-9-9-0---|--9-0-0-8-0-0-8-8-7--|
|------------------------------|---------------------||------------------------------|---------------------||------------------------------|---------------------||------------------------------|---------------------| |------------------------------|---------------------||--12-0-0-12-0-0-9-0-0-9-9-0---|--9-0-0-8-0-0-8-7-8--|
Gtr. 1|--------------------------------|--------------------------||--------------------------------|--------------------------||--------------------------------|--------------------------||--------------------------------|--------------------------| |--15-----15-----17-----17-17----|--17-----17-----17-17-17--||-----0-0----0-0----0-0-------0--|-----0-0----0-0-----------|
Gtr. 2|---------------------------|-------------------------||---------------------------|-------------------------||---------------------------|-------------------------||--7-----7-----9-----9-9----|--9-----10-----10-10-10--| |---------------------------|-------------------------||----0-0---0-0---0-0-----0--|----0-0----0-0-----------|
Final Chorus: Bb C#aug This body's not a temple, it's a prison, yeah Dm yeah
|-----------||-----------||-----------||--12\7-10--||--12\7-10--||--12\7-10--|
Bb C#aug This body's not a temple, it's a prison, yeah Dm yeah
|-----------||-----------||-----------||-----------||--5-0-3-5--||-----------|
Please rate this tab:
x1.0