The Devil Wears Prada - Wapakalypse tab

               I had only tabbed a part of this song
                 when it first came out but now i
                  have finished it, it's in Drop
                   B tuning, a half a step down
                   from Drop C.I hope you enjoy
                     Please rate and comment!



x - times played
b - bend
~ - let ring
h - hammer on
p - pull off
/ - slide up
\ - slide down



Intro|------------------------------------------------------------------|-|------------------------------------------------------------------|--|------------------------------------------------------------------|---|------------------------------------------------------------------|---- x 3|--000--0-0-0-0--000--0--0--000--000--000--0--0--0--000--000--000--|---|--000--0-0-0-0--000--0--0--000--000--000--0--0--0--000--000--000--|-
|------------|-|------------|--|------------|---|------------|---- x 1|--000-------|---|--000--6b---|-
|------------------------------------------------------------------|-|------------------------------------------------------------------|--|------------------------------------------------------------------|---|------------------------------------------------------------------|---- x 2|--000--0-0-0-0--000--0--0--000--000--000--0--0--0--000--000--000--|---|--000--0-0-0-0--000--0--0--000--000--000--0--0--0--000--000--000--|-
|----------------|-|----------------|--|----------------|---|----------------|---- x 1|--3-3-3-3-3-5---|---|--3-3-3-3-3-5---|-
rythem is under this,,,|--------------------------------------------------------|-|-----10-10-10-10-10-10-10-------13-13-13-13-13-13-13----|--|--------------------------------------------------------|---|------7--7--7--7--7--7--7-------10-10-10-10-10-10-10----|---- x 2|--0--------------------------0--------------------------|---|--0--------------------------0--------------------------|-
rythem,,,|---------------------------------------------------|-|---------------------------------------------------|--|---------------------------------------------------|---|---------------------------------------------------|---- x 1|--000000000--3333333--000000000--3333333-----------|---|--000000000--3333333--000000000--3333333-----------|-
|--------------------------------------------------------|-|--66666666---88888888---1010101010101010---88888888-----|--|--------------------------------------------------------|---|--33333333---55555555----7-7-7-7-7-7-7-7---55555555-----|---- x 1|--------------------------------------------------------|---|--------------------------------------------------------|-
rythem,,,|------------------------------------------------|-|------------------------------------------------|--|------------------------------------------------|---|--33333333--55555555--77777777--55555555--------|---- x 1|--11111111--33333333--55555555--33333333--------|---|------------------------------------------------|--
|--------------------------------------------------------|-|-----10-10-10-10-10-10-10-------13-13-13-13-13-13-13----|--|--------------------------------------------------------|---|------7--7--7--7--7--7--7-------10-10-10-10-10-10-10----|---- x 2|--0--------------------------0--------------------------|---|--0--------------------------0--------------------------|-
rythem,,,|---------------------------------------------------|-|---------------------------------------------------|--|---------------------------------------------------|---|---------------------------------------------------|---- x 1|--000000000--3333333--000000000--3333333-----------|---|--000000000--3333333--000000000--3333333-----------|-
|--------------------------------------------------------|-|--66666666---88888888---1010101010101010---88888888-----|--|--------------------------------------------------------|---|--33333333---55555555----7-7-7-7-7-7-7-7---55555555-----|---- x 1|--------------------------------------------------------|---|--------------------------------------------------------|-
rythem,,,|------------------------------------------------|-|------------------------------------------------|--|------------------------------------------------|---|--33333333--55555555--77777777--55555555--------|---- x 1|--11111111--33333333--55555555--33333333--------|---|------------------------------------------------|--
|--------------------------------------------------------|-|--------------------------------------------------------|--|--------------------------------------------------------|---|--------------------------------------------------------|---- x 2|--5-3--3-5--3-3-5----------33333333---5555555-----------|---|-------------------00000---33333333---5555555-----------|-
|------------------------------------------------------------------|-|------10-10-10-10-10-10-10-10-----------10-10-10-10-10-10-10-10---|--|------12-12-12-12-12-12-12-12-----------12-12-12-12-12-12-12-12---|---|------------------------------------------------------------------|---- x 1|--0-----------------------------0-0-0-----------------------------|--|--0-----------------------------0-0-0-----------------------------|-
|------------------------------|-|--13-13-13-13--20-20-20-20----|--|--14-14-14-14--21-21-21-21----|---|------------------------------|---- x 1|------------------------------|---|------------------------------|-
keep rythem going with opensinstead of 10-12s.|---------------------------------------------------------------------|-|----------------------------------10101010101010101010101010101010---|--|----------------------------------12121212121212121212121212121212---|---|-------------------------------0-------------------------------------|---x1|--000-000-000-000--000--000-0000-------------------------------------|---|--000-000-000-000--000--000-0000-------------------------------------|--
|---------------------------------------------------------------------|-|----------------------------------13131313131313131313131313131313---|--|----------------------------------14141414141414141414141414141414---|---|-------------------------------0-------------------------------------|---x1|--000-000-000-000--000--000-0000-------------------------------------|---|--000-000-000-000--000--000-0000-------------------------------------|--
|--------------------------------------------------------|-|--------------------------------------------------------|--|--------------17-17-17-17-17-17-17-17-17-17-17-17/19----|---|--------------------------------------------------------|---- x 1|--000-0-0-0---15-15-15-15-15-15-15-15-15-15-15-15/17----|---|--000-0-0-0---------------------------------------------|-
|----------------------------------------------------------|-|----------------------------------------------------------|--|--14-14-14-14-14-14-14-14-14\12-12-12-12-12-12-12-12------|---|----------------------------------------------------------|---- x 1|--12-12-12-12-12-12-12-12-12\10-10-10-10-10-10-10-10--0---|---|------------------------------------------------------0---|-
|------------------------------------------------------|-|-----10----10----10-----------------------------------|--|--12----12----12----12-10--12-10-9-10-9---------------|---|-----------------------------------------10h12--------|---- x 2|------------------------------------------------------|---|------------------------------------------------------|-
pretty cool riff rythemis right under this,,,|--------------------------------------------|-|-------------------------------10-----------|--|--10-9---------10-9---------12----12-10-----|---|--------10-12--------10-12------------------|---- x 3|--------------------------------------------|---|--------------------------------------------|-
|--------------------------------10~---------|-|-------------------10-10-13-13--------------|--|--10-9----------12--------------------------|---|--------10-12-------------------------------|---- x 1|--------------------------------------------|---|--------------------------------------------|-
rythem,,, play x 2|-------------------------------------------------------------------------||-------------------------------------------------------------------------||-------------------------------------------------------------------------||-------------------------------------------------------------------------||--8888888888888888--7777777777777777--5555555555555555--777777777777777--||--8888888888888888--7777777777777777--5555555555555555--777777777777777--|
|----------------------------------------------------------------|-|----------------------------------------------------------------|--|----------------------------------------------------------------|---|--8-------5-----7--------------8-------5-----7------------------|---- x 3|-------------------------------------------------5555-8888------|---|-----0-0-----0-----0000000000-----0-0-----0------5555-8888------|-
|----------------------------------------------------------------|-|----------------------------------------------------------------|--|----------------------------------------------------------------|---|--2----------------------------2--------------------------------|---- x 2|----------3-----5----------------------3-----5---5555-8888------|---|-----0-0-----0-----0000000000-----0-0-----0------5555-8888------|-
|--------------------------------------------------------|-|-----10-10-10-10-10-10-10-------13-13-13-13-13-13-13----|--|--------------------------------------------------------|---|------7--7--7--7--7--7--7-------10-10-10-10-10-10-10----|---- x 2|--0--------------------------0--------------------------|---|--0--------------------------0--------------------------|-
rythem,,,|---------------------------------------------------|-|---------------------------------------------------|--|---------------------------------------------------|---|---------------------------------------------------|---- x 1|--000000000--3333333--000000000--3333333-----------|---|--000000000--3333333--000000000--3333333-----------|-
|--------------------------------------------------------|-|--66666666---88888888---1010101010101010---88888888-----|--|--------------------------------------------------------|---|--33333333---55555555----7-7-7-7-7-7-7-7---55555555-----|---- x 1|--------------------------------------------------------|---|--------------------------------------------------------|-
rythem,,,|------------------------------------------------|-|------------------------------------------------|--|------------------------------------------------|---|--33333333--55555555--77777777--55555555--------|---- x 1|--11111111--33333333--55555555--33333333--------|---|------------------------------------------------|--
|--------------------------------------------------------|-|-----10-10-10-10-10-10-10-------13-13-13-13-13-13-13----|--|--------------------------------------------------------|---|------7--7--7--7--7--7--7-------10-10-10-10-10-10-10----|---- x 2|--0--------------------------0--------------------------|---|--0--------------------------0--------------------------|-
rythem,,,|---------------------------------------------------|-|---------------------------------------------------|--|---------------------------------------------------|---|---------------------------------------------------|---- x 1|--000000000--3333333--000000000--3333333-----------|---|--000000000--3333333--000000000--3333333-----------|-
|--------------------------------------------------------|-|--66666666---88888888---1010101010101010---88888888-----|--|--------------------------------------------------------|---|--33333333---55555555----7-7-7-7-7-7-7-7---55555555-----|---- x 1|--------------------------------------------------------|---|--------------------------------------------------------|-
rythem,,,|------------------------------------------------|-|------------------------------------------------|--|------------------------------------------------|---|--33333333--55555555--77777777--55555555--------|---- x 1|--11111111--33333333--55555555--33333333--------|---|------------------------------------------------|--
|--------------------------------------------------------|-|--------------------------------------------------------|--|--------------------------------------------------------|---|--------------------------------------------------------|---- x 1|--5-3--3-5--3-3-5----------33333333---5555555-----------|---|-------------------00000---33333333---5555555-----------|-
|--------------------------------------------------------|-|--------------------------------------------------------|--|--------------------------------------------------------|---|--------------------------------------------------------|---- x 1|--5-3--3-5--3-3-5----------33333333---0000000-----------|---|-------------------00000---33333333---0000000-----------|-
Breakdown riff two ways too play this riff|--------------------------------------------------------------------|-|------------------------------------------------------------13-15---|--|------------------------------------------------------14-15---------|---|---------------------------------------14h15p14-12-14---------------|---x1|--0-0-0--0-0-0-0-0--00000--0-0-0--0-0-------------------------------|--|--0-0-0--0-0-0-0-0--00000--0-0-0--0-0-------------------------------|-
or like this...|--------------------------------------------------------------------|-|------------------------------------------------------------17-18---|--|------------------------------------------------------17-19---------|---|---------------------------------------17h19p17----17---------------|---x1|--0-0-0--0-0-0-0-0--00000--0-0-0--0-0-----------20------------------|--|--0-0-0--0-0-0-0-0--00000--0-0-0--0-0-------------------------------|-
|---------------------------------------------------|-|---------------------------------------------------|--|---------------------------------------------------|---|---------------------------------------------------|---x1|--0-0-0--0-0-0-0-0--00000--0-0-0--0-0---8~--7~-----|--|--0-0-0--0-0-0-0-0--00000--0-0-0--0-0---8~--7~-----|-
Then too a slowTempo breakdown|--------------------------------|-|--------------------------------|--|--------------------------------|---|--------------------------------|---- x 2|--0-0-0~-0-0-0-0-0~-00000~------|---|--0-0-0~-0-0-0-0-0~-00000~------|-
This time palm mute |--------------------------------------------|-|--------------------------------------------|--|--------------------------------------------|---|---------------------------------------0----|---- x 1|--0-0-0--0-0-0-0-0--00000--0-0-0--0-0--0----|---|--0-0-0--0-0-0-0-0--00000--0-0-0--0-0--0----|-
Breakdown riff again|--------------------------------------------------------------------|-|------------------------------------------------------------13-15---|--|------------------------------------------------------14-15---------|---|---------------------------------------14h15p14-12-14---------------|---x1|--0-0-0--0-0-0-0-0--00000--0-0-0--0-0-------------------------------|--|--0-0-0--0-0-0-0-0--00000--0-0-0--0-0-------------------------------|-
Two choices...|--------------------------------------------------------------------|-|------------------------------------------------------------17-18---|--|------------------------------------------------------17-19---------|---|---------------------------------------17h19p17----17---------------|---x1|--0-0-0--0-0-0-0-0--00000--0-0-0--0-0-----------20------------------|--|--0-0-0--0-0-0-0-0--00000--0-0-0--0-0-------------------------------|-
|---------------------------------------------------|-|---------------------------------------------------|--|---------------------------------------------------|---|---------------------------------------------------|---x1|--0-0-0--0-0-0-0-0--00000--0-0-0--0-0---8~--7~-----|--|--0-0-0--0-0-0-0-0--00000--0-0-0--0-0---8~--7~-----|-
Outro/ending|----------------------|-|----------------------|--|----------------------|---|-------0--------------|---- x 1|--0-0--0--------------|---|--0-0--0--------------|-
I hope you enjoyed this tab Thanks alot, Please rate and comment! :)
Tap to rate this tab
 
# A B C D E F G H I J K L M N O P Q R S T U V W X Y Z