The Devil Wears Prada – Rit tab

The Devil Wears Prada - R.I.T.

8/30/2011

video of my cover: http://www.youtube.com/watch?v=wy1AsAK3F0Y


Intro:

|------------------------------------------------------------------------||------------------------------------------------------------------------||------------------------------------------------------------------------||-0---0-00-6/-1-000------0--4-4-4-4-3-3-3-6/-1-000------0--4-4-4-4-1-1-1-||-0---0-00-6/-1-000------0--4-4-4-4-3-3-3-6/-1-000------0--4-4-4-4-1-1-1-||-0---0-00-6/-1-000--13--0--4-4-4-4-3-3-3-6/-1-000--13--0--4-4-4-4-1-1-1-| . . .. ... ...
|----------------------------------------------||----------------------------------------------||----------------------------------------------||-6/--------------0-00-6/-1-----0-4-4-4-00--2*-||-6/-0-0-0-0------0-00-6/-1-----0-4-4-4-00-----||-6/-1-1-1-1------0-00-6/-1-13--0-4-4-4-00-----| . . . . . .. . ..
Verse 1A:
|----------------------------------------------------------------------------------||----------------------------------------------------------------------------------||----------------------------------------------------------------------------------||-0-0--0-0--0-0-0-0-0-0-0-0-0-0----0-0-0-0-0000-0000-0-0-0-0-0-0-0-0--4-4----3-3-3-||-0-0--0-0--0-0-0-0-0-0-0-0-0-0----0-0-0-0-0000-0000-0-0-0-0-0-0-0-0--4-4-00-3-3-3-||-0-0--0-0--0-0-0-0-0-0-0-0-0-0----0-0-0-0-0000-0000-0-0-0-0-0-0-0-0--4-4-00-3-3-3-| . . . . . . . . . . . . . . . . . . .... .... . . . . . . . . ..
|-----------------------------------------------------------------------------------------||-----------------------------------------------------------------------------------------||-----------------------------------------------------------------------------------------||-0-0--0-0--0-0-0-0-0-0-0-0-0-0----0-0-0-0-0000-0000-0-0-0-0-0-0-0-0--4-4----1-1-1--0-----||-0-0--0-0--0-0-0-0-0-0-0-0-0-0----0-0-0-0-0000-0000-0-0-0-0-0-0-0-0--4-4-00-1-1-1--0---5-||-0-0--0-0--0-0-0-0-0-0-0-0-0-0----0-0-0-0-0000-0000-0-0-0-0-0-0-0-0--4-4-00-1-1-1--0-----| . . . . . . . . . . . . . . . . . . .... .... . . . . . . . . .. .
Verse 1B:
|-----------------------------------------------------------------------------------||-----------------------------------------------------------------------------------||---7-7---7--6--7--------101010109-9-9-9----1010--10/12--10-12--------15-15-15-15---||-----------------------------------------------------------------------------------||---5-5---5--4--5--------8-8-8-8-7-7-7-7----8-8---8-/10--8--10--------13-13-13-13---||-00----00---------0-0-0------------------00----00-------------0-0-0--------------0-| .. .. . . . .. .. . . . .
|-----------------------------------------------------------------------------------||-----------------------------------------------------------------------------------||---7-7---7--6--7--------101010109-9-9-9----1010--10/12--10-12--------15-15-15-15---||-----------------------------------------------------------------------------------||---5-5---5--4--5--------8-8-8-8-7-7-7-7----8-8---8-/10--8--10--------13-13-13-13---||-00----00---------0-0-0------------------00----00-------------0-0-0--------------0-| .. .. . . . .. .. . . . .
Pre-Chorus:
|---------------------------------------------------------||---------------------------------------------------------||---------------------------------------------------------||-----------------8--0----00-00-0--00-00-0---------3------||-7h8h7h0h5h7h5h0-8--0-5*-00-00-0--00-00-0---2-1-0-1--0-1-||-----------------8--0----00-00-0--00-00-0---2-1-0----0-1-| . .. .. . .. .. . . . . .
|-------------------------------------------------------||-------------------------------------------------------||-------------------------------------------------------||-----------------8--0----1~~---------3----3~~--7-------||-7h8h7h0h5h7h5h0-8--0-5*-1~~---2-1-0-1--0-3~~----3-5-7-||-----------------8--0----1~~---2-1-0----0-3~~----------| . . . . .
Chorus (x4):
|------------------------------------------------------------------------||------------------------------------------------------------------------||------------------------------------------------------------------------||------------------------------------------------------------------------||-5-5-5-5-5-5------------------------------------------------------------||-------------0-0-0-0-0-0-0-0-0-0-15-15-15-15-0-0-0-0-15h0-0-15h0-0-15h0-|
|-----------------------------------------------------------||-----------------------------------------------------------||-----------------------------------------------------------||-5-5-5-5--5-5-5-5--5-5-5-5-8-8-8-8-8-8-8-8-7-7-------------||-5-5-5-5--5-5-5-5--5-5-5-5-8-8-8-8-8-8-8-8-----3-3-5-5-7-7-||-5-5-5-5--5-5-5-5--5-5-5-5-8-8-8-8-8-8-8-8-----------------|
Post-Chorus:
|------------------------------------------||------------------------------------------||------------------------------------------||-00-----00-0-----00-0~~-----00000~~-----0-||-00-----00-0-----00-0~~-----00000~~-----0-||-00-----00-0-----00-0~~-----00000~~-----0-| .. .. . .. .... .
Verse 2A:
|---------------------------------------------------||---------------------------------------------------||---------------------------------------------------||---------------------------------------------------||---------------------0-0-0-0---0-0-8-8-8-8-4-4-4-4-||-0--0-12--0-13--12---0-0-0-0---0-0-----------------| . . . . . . . . .
|------------------------------------------3*---------||------------------------------------------3*---------||------------------------------------------3*---------||-----------------------------------------------------||--------------------0-0-0-0-0-0--0--0--0-----0-0-0-0-||-0--0-12--0-13--12--0-0-0-0-0-0--1--1--1-----0-0-0-0-| . . . . . . . . . . . . . . . .
|------------------------------------------------||------------------------------------------------||------------------------------------------------||------------------------------------------------||-0--0-0--0-0--0---0-0-0-0---0-0-8-8-8-8-4-4-4-4-||-0--0-0--0-0--0---0-0-0-0---0-0-----------------| . . . . . . . . . . . .
|------------------------------------------3*-------------||------------------------------------------3*-------------||------------------------------------------3*-------------||---------------------------------------------------------||--------------------0-0-0-0-0-0--0--0--0-----0-0-0-0-0-0-||-0--0-12--0-13--12--0-0-0-0-0-0--1--1--1-----0-0-0-0-0-0-| . . . . . . . . . . . . . . . . . .
Verse 2B:
|---------------------------------------------------------------||---------------------------------------------------------------||---------------------------------------------------------------||-6/-1-000------0--4-4-4-4-3-3-3-6/-1-000------0--4-4-4-4-1-1-1-||-6/-1-000------0--4-4-4-4-3-3-3-6/-1-000------0--4-4-4-4-1-1-1-||-6/-1-000--13--0--4-4-4-4-3-3-3-6/-1-000--13--0--4-4-4-4-1-1-1-| . ... ...
|------------------------------------------------------||------------------------------------------------------||------------------------------------------------------||-6/---------------0-00-6/-1-000------0--4-4-4-7-------||-6/-0-0-0-0--0----0-00-6/-1-000------0--4-4-4---3-5-7-||-6/-1-1-1-1--0----0-00-6/-1-000--13--0--4-4-4---------| . . . . . . .. ...
Chorus (x4):
|------------------------------------------------------------------------||------------------------------------------------------------------------||------------------------------------------------------------------------||------------------------------------------------------------------------||-5-5-5-5-5-5------------------------------------------------------------||-------------0-0-0-0-0-0-0-0-0-0-15-15-15-15-0-0-0-0-15h0-0-15h0-0-15h0-|
|-----------------------------------------------------------||-----------------------------------------------------------||-----------------------------------------------------------||-5-5-5-5--5-5-5-5--5-5-5-5-8-8-8-8-8-8-8-8-7-7-------------||-5-5-5-5--5-5-5-5--5-5-5-5-8-8-8-8-8-8-8-8-----3-3-5-5-7-7-||-5-5-5-5--5-5-5-5--5-5-5-5-8-8-8-8-8-8-8-8-----------------|
Post-Chorus:
|----------------------------------------------------------------------||----------------------------------------------------------------------||----------------------------------------------------------------------||-00-----00000-----00000~~-----0000----------------------------------0-||-00-----00000-----00000~~-----0000-6-6-6-6-6-6-6-6-6-6-6-6-6-6-6-6--0-||-00-----00000-----00000~~-----0000----------------------------------0-| .. ..... .... ....
Please rate this tab:
x1.0