The Duskfall – The Light tab

=-=-=-=-=-=-=-=-=-=-=-=-=-=-=-=-=-=-=-=-=-=-=-=-=-
The LightThe DuskfallFrality (2002)Listen to song for speed, rhythm, and timing=-=-=-=-=-=-=-=-=-=-=-=-=-=-=-=-=-=-=-=-=-=-=-=-=-
Intro=-=-=-=-=-|-------------------------------------------------------||-------------------------------------------------------||-------------------------------------------------------||-------------------------------------------------------||--8--5-7----------8--5-7--------8--5-7--------8--5-7---||---00-0------------00-0----------00-0----------00-0----| .. . .. . .. . .. .
|-------------------------------------------------------||-------------------------------------------------------||-------------------------------------------------------||-------------------------------------------------------||--8--5-7--------------------8--5-7----10-10-9----------||---00-0-00-000-000-000-000---00-0-0-8---0--0-7~--------| .. . .. ... ... ... ... .. . . . .
|-----------------------------------------------||-----------------------------------------------||-----------------------------------------------||------------------------------------9-9-7------||--8--5-7--------------------8--5-7-------------||---00-0-00-000-000-000-000---00-0-8--0-0-5~----| .. . .. ... ... ... ... .. .
|-------------------------------------------------------||-------------------------------------------------------||-------------------------------------------------------||-------------------------------------------------------||--8--5-7--------------------8--5-7----10-10-9----------||---00-0-00-000-000-000-000---00-0-0-8---0--0-7~--------| .. . .. ... ... ... ... .. . . . .
|-----------------------------------------------||-----------------------------------------------||-----------------------------------------------||------------------------------------9-9-7------||--8--5-7--------------------8--5-7-------------||---00-0-00-000-000-000-000---00-0-8--0-0-5~----| .. . .. ... ... ... ... .. .
=-=-=-=-=-
Verse:=-=-=-=-=-|----------------------------------------------------||----------------------------------------------------||---------------------------------------7-5-4--------||------------5-4-------5-4-------------------7-5-4~--||-7--7-7-7-------7-2-7-------7--7-7-7----------------||--00-0-0---------------------00-0-0-----------------| .. . . .. . .
|---------------------------------------------||---------------------------------------------||---------------------------------------7--7--||------------5-4-------5-4--------------5--4--||-7--7-7-7-------7-2-7-------7--7-7-7---------||--00-0-0---------------------00-0-0----------| .. . . .. . .
|----------------------------------------------------||----------------------------------------------------||---------------------------------------7-5-4--------||------------5-4-------5-4-------------------7-5-4~--||-7--7-7-7-------7-2-7-------7--7-7-7----------------||--00-0-0---------------------00-0-0-----------------| .. . . .. . .
|---------------------------------------------||---------------------------------------------||---------------------------------------7--7--||------------5-4-------5-4--------------5--4--||-7--7-7-7-------7-2-7-------7--7-7-7---------||--00-0-0---------------------00-0-0----------| .. . . .. . .
=-=-=-=-=-=-
Bridge:=-=-=-=-=-=-|-------------------------------------||-----------------------------4-------||--5---7---9~------5---7---4--4-------||--5---7---9~------5---7---4--2-------||--3---5---7~------3---5---2----------||-------------------------------------|
=-=-=-=-=-=-
Chorus:=-=-=-=-=-=-|-----------------------------------------------------------------------------------------------||-----------------------------------------------------------------------------------------------||-9-99-99--9-9-9-9-12-11-9--5-55-55--5-5-5-5-12-11-7--9-99-99--9-9-9-9-12-11-9--5-55-55--2--5-7-||-9-99-99--9-9-9-9-12-11-9--5-55-55--5-5-5-5-12-11-7--9-99-99--9-9-9-9-12-11-9--5-55-55--2--5-7-||-7-77-77--7-7-7-7-10--9-7--3-33-33--3-3-3-3-10--9-5--7-77-77--7-7-7-7-10--9-7--3-33-33--0--3-5-||-----------------------------------------------------------------------------------------------|
|-----------------------------------------------------------------------------------------------||-----------------------------------------------------------------------------------------------||-9-99-99--9-9-9-9-12-11-9--5-55-55--5-5-5-5-12-11-7--9-99-99--9-9-9-9-12-11-9--5-55-55--2--5-7-||-9-99-99--9-9-9-9-12-11-9--5-55-55--5-5-5-5-12-11-7--9-99-99--9-9-9-9-12-11-9--5-55-55--2--5-7-||-7-77-77--7-7-7-7-10--9-7--3-33-33--3-3-3-3-10--9-5--7-77-77--7-7-7-7-10--9-7--3-33-33--0--3-5-||-----------------------------------------------------------------------------------------------|
=-=-=-=-=-=-=-
Main Riff:=-=-=-=-=-=-=-|-------------------------------------------------------||-------------------------------------------------------||-------------------------------------------------------||-------------------------------------------------------||--8--5-7--------------------8--5-7----10-10-9----------||---00-0-00-000-000-000-000---00-0-0-8---0--0-7~--------| .. . .. ... ... ... ... .. . . . .
|-----------------------------------------------||-----------------------------------------------||-----------------------------------------------||------------------------------------9-9-7------||--8--5-7--------------------8--5-7-------------||---00-0-00-000-000-000-000---00-0-8--0-0-5~----| .. . .. ... ... ... ... .. .
|-------------------------------------------------------||-------------------------------------------------------||-------------------------------------------------------||-------------------------------------------------------||--8--5-7--------------------8--5-7----10-10-9----------||---00-0-00-000-000-000-000---00-0-0-8---0--0-7~--------| .. . .. ... ... ... ... .. . . . .
|-----------------------------------------------||-----------------------------------------------||-----------------------------------------------||------------------------------------9-9-7------||--8--5-7--------------------8--5-7-------------||---00-0-00-000-000-000-000---00-0-8--0-0-5~----| .. . .. ... ... ... ... .. .
=-=-=-=-=-
Verse:=-=-=-=-=-|----------------------------------------------------||----------------------------------------------------||---------------------------------------7-5-4--------||------------5-4-------5-4-------------------7-5-4~--||-7--7-7-7-------7-2-7-------7--7-7-7----------------||--00-0-0---------------------00-0-0-----------------| .. . . .. . .
|---------------------------------------------||---------------------------------------------||---------------------------------------7--7--||------------5-4-------5-4--------------5--4--||-7--7-7-7-------7-2-7-------7--7-7-7---------||--00-0-0---------------------00-0-0----------| .. . . .. . .
|----------------------------------------------------||----------------------------------------------------||---------------------------------------7-5-4--------||------------5-4-------5-4-------------------7-5-4~--||-7--7-7-7-------7-2-7-------7--7-7-7----------------||--00-0-0---------------------00-0-0-----------------| .. . . .. . .
|---------------------------------------------||---------------------------------------------||---------------------------------------7--7--||------------5-4-------5-4--------------5--4--||-7--7-7-7-------7-2-7-------7--7-7-7---------||--00-0-0---------------------00-0-0----------| .. . . .. . .
=-=-=-=-=-=-
Bridge:=-=-=-=-=-=-|-------------------------------------||-----------------------------4-------||--5---7---9~------5---7---4--4-------||--5---7---9~------5---7---4--2-------||--3---5---7~------3---5---2----------||-------------------------------------|
=-=-=-=-=-=-
Chorus:=-=-=-=-=-=-|-----------------------------------------------------------------------------------------------||-----------------------------------------------------------------------------------------------||-9-99-99--9-9-9-9-12-11-9--5-55-55--5-5-5-5-12-11-7--9-99-99--9-9-9-9-12-11-9--5-55-55--2--5-7-||-9-99-99--9-9-9-9-12-11-9--5-55-55--5-5-5-5-12-11-7--9-99-99--9-9-9-9-12-11-9--5-55-55--2--5-7-||-7-77-77--7-7-7-7-10--9-7--3-33-33--3-3-3-3-10--9-5--7-77-77--7-7-7-7-10--9-7--3-33-33--0--3-5-||-----------------------------------------------------------------------------------------------|
|-----------------------------------------------------------------------------------------------||-----------------------------------------------------------------------------------------------||-9-99-99--9-9-9-9-12-11-9--5-55-55--5-5-5-5-12-11-7--9-99-99--9-9-9-9-12-11-9--5-55-55--2--5-7-||-9-99-99--9-9-9-9-12-11-9--5-55-55--5-5-5-5-12-11-7--9-99-99--9-9-9-9-12-11-9--5-55-55--2--5-7-||-7-77-77--7-7-7-7-10--9-7--3-33-33--3-3-3-3-10--9-5--7-77-77--7-7-7-7-10--9-7--3-33-33--0--3-5-||-----------------------------------------------------------------------------------------------|
=-=-=-=-=-=-=-=-
Bridge (2):=-=-=-=-=-=-=-=-|-----------------------------------------------------------------||-----------------------------------------------------------------||-----------------------------------------------------------------||-----------------------------------------------------------------||-----------------------------------------------------------------||-0--000-000----000-000----000-000-----------000----000----000----| ... ... ... ... ... ... ... ... ...
|-----------------------------------------------------------------||-----------------------------------------------------------------||-----------------------------------------------------------------||-----------------------------------------------------------------||-----------------------------------------------------------------||-0--000-000----000-000----000-000-----------000----000----000----| ... ... ... ... ... ... ... ... ...
=-=-=-=-=-=-=-=-=-=-
Appregios (Solo):=-=-=-=-=-=-=-=-=-=-|-------------------------------------------------------------------------||-----------------11-12-11------------141211------------------------------||------7/9--11-12----------12-11-12----------14-12-11-14\12--11-9-7-9-11--||----9--------------------------------------------------------------------||--7----------------------------------------------------------------------||-------------------------------------------------------------------------|
|-------------------------------------------------------------------------------------||-----------------11-12-11------------141211-------9-11-9-----------------------------||------7/9--11-12----------12-11-12----------12-11---------12-11-9--------------------||----9--------------------------------------------------------------12-10-9-----------||--7-------------------------------------------------------------------------12-10-9--||-------------------------------------------------------------------------------------|
|-------------------------------------------------------------------------||-----------------11-12-11------------141211------------------------------||------7/9--11-12----------12-11-12----------14-12-11-14\12--11-9-7-9-11--||----9--------------------------------------------------------------------||--7----------------------------------------------------------------------||-------------------------------------------------------------------------|
|--------------------------------------------------------------------------------------||-----------------11-12-11----------14-12-11-------------------------------------------||------7/9--11-12----------12-11-12----------14-12-11----------12-11-9-----------------||----9------------------------------------------------14-12-10---------12-10-9---------||--7---------------------------------------------------------------------------12-10-9-||--------------------------------------------------------------------------------------|
=-=-=-=-=-=-=-=-
Bridge (2):=-=-=-=-=-=-=-=-|-----------------------------------------------------------------||-----------------------------------------------------------------||-----------------------------------------------------------------||-----------------------------------------------------------------||-----------------------------------------------------------------||-0--000-000----000-000----000-000-----------000----000----000----| ... ... ... ... ... ... ... ... ...
|-----------------------------------------------------------------||-----------------------------------------------------------------||-----------------------------------------------------------------||-----------------------------------------------------------------||-----------------------------------------------------------------||-0--000-000----000-000----000-000-----------000----000----000----| ... ... ... ... ... ... ... ... ...
=-=-=-=-=-=-
Chorus: =-=-=-=-=-=-|-----------------------------------------------------------------------------------------------||-----------------------------------------------------------------------------------------------||-9-99-99--9-9-9-9-12-11-9--5-55-55--5-5-5-5-12-11-7--9-99-99--9-9-9-9-12-11-9--5-55-55--2--5-7-||-9-99-99--9-9-9-9-12-11-9--5-55-55--5-5-5-5-12-11-7--9-99-99--9-9-9-9-12-11-9--5-55-55--2--5-7-||-7-77-77--7-7-7-7-10--9-7--3-33-33--3-3-3-3-10--9-5--7-77-77--7-7-7-7-10--9-7--3-33-33--0--3-5-||-----------------------------------------------------------------------------------------------|
|-----------------------------------------------------------------------------------------------||-----------------------------------------------------------------------------------------------||-9-99-99--9-9-9-9-12-11-9--5-55-55--5-5-5-5-12-11-7--9-99-99--9-9-9-9-12-11-9--5-55-55--2--5-7-||-9-99-99--9-9-9-9-12-11-9--5-55-55--5-5-5-5-12-11-7--9-99-99--9-9-9-9-12-11-9--5-55-55--2--5-7-||-7-77-77--7-7-7-7-10--9-7--3-33-33--3-3-3-3-10--9-5--7-77-77--7-7-7-7-10--9-7--3-33-33--0--3-5-||-----------------------------------------------------------------------------------------------|
|-----------------------------------------------------------------------------------------------||-----------------------------------------------------------------------------------------------||-9-99-99--9-9-9-9-12-11-9--5-55-55--5-5-5-5-12-11-7--9-99-99--9-9-9-9-12-11-9--5-55-55--2--5-7-||-9-99-99--9-9-9-9-12-11-9--5-55-55--5-5-5-5-12-11-7--9-99-99--9-9-9-9-12-11-9--5-55-55--2--5-7-||-7-77-77--7-7-7-7-10--9-7--3-33-33--3-3-3-3-10--9-5--7-77-77--7-7-7-7-10--9-7--3-33-33--0--3-5-||-----------------------------------------------------------------------------------------------|
|-----------------------------------------------------------------------------------------------||-----------------------------------------------------------------------------------------------||-9-99-99--9-9-9-9-12-11-9--5-55-55--5-5-5-5-12-11-7--9-99-99--9-9-9-9-12-11-9--5-55-55--2--5-7-||-9-99-99--9-9-9-9-12-11-9--5-55-55--5-5-5-5-12-11-7--9-99-99--9-9-9-9-12-11-9--5-55-55--2--5-7-||-7-77-77--7-7-7-7-10--9-7--3-33-33--3-3-3-3-10--9-5--7-77-77--7-7-7-7-10--9-7--3-33-33--0--3-5-||-----------------------------------------------------------------------------------------------|
Legend: . - Palm Mute / - Slide Up \ - Slide Down
Please rate this tab:
x1.0