The Epoxies - Were So Small tab

Song: We're So Small 
Artist: The Epoxies
Album: Epoxies

Tabbed by: CadetPD
Email: Ska_Boss66@hotmail.com



Keyboard Intro Riff:

E||-----3----------7-------|-----10--5-----10-5----10--|B||--------3----0-----7----|--3---------3--------3-----|G||--0---------------------|---------------------------|D||------------------------|---------------------------|A||------------------------|---------------------------|E||------------------------|---------------------------|
Verses
E|--------------------------|---------------------------|B|--------------------------|---------------------------|G|--------------------------|--7--7--7--7--7--7--7--7---|D|--5--5----5--9--9----9----|--7--7--7--7--7--7--7--7---|A|--5--5----5--9--9----9----|--5--5--5--5--5--5--5--5---| E|--3--3----3--7--7----7----|---------------------------|
Chorus'
|---------------------------||---------------------------||--5--5--5--5--5--5--5--5---||--5--5--5--5--5--5--5--5---||--3--3--3--3--3--3--3--3---||---------------------------|
|---------------------------|----------------------------||---------------------------|----------------------------||--5--5--5--5--5--5--5--5---|--7--7--7--7--7--7--7--7----||--5--5--5--5--5--5--5--5---|--7--7--7--7--7--7--7--7----||--3--3--3--3--3--3--3--3---|--5--5--5--5--5--5--5--5----||---------------------------|----------------------------|
---------------------------|----------------------------|---------------------------|----------------------------|--7--7--7--7--7--7--7--7---|--5--5--5--5--5--5--5--5----|--7--7--7--7--7--7--7--7---|--5--5--5--5--5--5--5--5----|--5--5--5--5--5--5--5--5---|--3--3--3--3--3--3--3--3----|---------------------------|----------------------------|
--------------------------|----------------------------|-------------------|--------------------------|----------------------------|--7----------------|--5--5--5--5--5--5--5--5--|--7--7-------------------- -|--7----------------|--5--5--5--5--5--5--5--5--|--------7--7--------7--7-- -|--7----------------|--3--3--3--3--3--3--3--3--|--------------5--5------- --|-------------------|--------------------------|----------------------------|-------------------|
Bridge
---------------------------|----------------------------|---------------------------|----------------------------|--7--7--7--7--7--7--7--7---|--5--5--5--5--5--5--5--5----|--7--7--7--7--7--7--7--7---|--5--5--5--5--5--5--5--5----|--5--5--5--5--5--5--5--5---|--3--3--3--3--3--3--3--3----|---------------------------|----------------------------|
----------------------------|----------------------------|----------------------------|----------------------------|----------------------------|---7--7--7--7--7--7--7--7---|--5--5--5--5--5--5--5--5----|---7--7--7--7--7--7--7--7---|--5--5--5--5--5--5--5--5----|---5--5--5--5--5--5--5--5---|--3--3--3--3--3--3--3--3----|----------------------------|
---------------------------|---------------------------|---------------------------|---------------------------|--5--5--5--5--5--5--5--5---|---------------------------|--5--5--5--5--5--5--5--5---|--5--5----5--9--9----9-----|--3--3--3--3--3--3--3--3---|--5--5----5--9--9----9-----|---------------------------|--3--3----3--7--7----7-----|
---------------------------|---------------------------|--7--7--7--7--7--7--7--7---|--7--7--7--7--7--7--7--7---|--5--5--5--5--5--5--5--5---|---------------------------|
End On
|---------------------------|-------------------||---------------------------|-------------------||---------------------------|--7----------------||--5--5----5--9--9----9-----|--7----------------||--5--5----5--9--9----9-----|--5----------------||--3--3----3--7--7----7-----|-------------------|
Structure: Keyboard Intro x 2 Verse x 6 Chorus x1 Verse x4 Chorus x1 Verse part x2 Bridge x1 Verse part x2 Chorus x1 Verse part x2 Chorus x1 Verse Part x4
Tap to rate this tab
 
# A B C D E F G H I J K L M N O P Q R S T U V W X Y Z