The Flatliners - The Calming Collection tab

The Flatliners - The Calming Collection

Intro ||-----------------------------|-----------------------------|||-----------------------------|-----------------------------|||--------7-7-7--7-7-7--7-7-7--|-7-7-7--7-7-7--7-7-7--7-7-7--|||-4-4-4--7-7-7--7-7-7--7-7-7--|-7-7-7--7-7-7--7-7-7--7-7-7--|||-4-4-4--5-5-5--5-5-5--5-5-5--|-5-5-5--5-5-5--5-5-5--5-5-5--|||-2-2-2-----------------------|-----------------------------|
||-----------------------------|-----------------------------|||-----------------------------|---------------3-3-3-3-------|||--------7-7-7--7-7-7--7-7-7--|-7-7-7--7-7-7--4-4-4-4-------|||-4-4-4--7-7-7--7-7-7--7-7-7--|-7-7-7--7-7-7--4-4-4-4-------|||-4-4-4--5-5-5--5-5-5--5-5-5--|---------------2-2-2-2-------|||-2-2-2-----------------------|-5-5-5--5-5-5----------------|
Verse#1||-----------------------------|-----------------------------|||-----------------------------|-----------------------------|||--------7-7-7--7-7-7--7-7-7--|-4-4-4--4-4-4--6-6-6--6-6-6--|||-4-4-4--7-7-7--7-7-7--7-7-7--|-4-4-4--4-4-4--6-6-6--6-6-6--|||-4-4-4--5-5-5--5-5-5--5-5-5--|-2-2-2--2-2-2--4-4-4--4-4-4--|||-2-2-2-----------------------|-----------------------------|
||-----------------------------|-----------------------------|||-----------------------------|-----------------------------|||-7-7-4--7-7-7--7-7-7--7-7-7--|-----------------------------|||-7-7-4--7-7-7--7-7-7--7-7-7--|-7-7-7--7-7-7--6-6-6--6-6-6--|||-5-5-6--5-5-5--5-5-5--5-5-5--|-7-7-7--7-7-7--7-7-7--7-7-7--|||-----------------------------|-5-5-5--5-5-5--4-4-4--4-4-4--|
||-----------------------------|-----------------------------|||-----------------------------|-5-5-5--5-5-5----------------|||--------7-7-7--7-7-7--7-7-7--|-6-6-6--6-6-6----------------|||-4-4-4--7-7-7--7-7-7--7-7-7--|-6-6-6--6-6-6--4-4-4--4-4-4--|||-4-4-4--5-5-5--5-5-5--5-5-5--|-4-4-4--4-4-4--4-4-4--4-4-4--|||-2-2-2-----------------------|---------------2-2-2--2-2-2--|
||-----------------------------|-----------------------------|||-----------------------------|-----------------------------|||-7-7-7--7-7-7--7-7-7--7-7-7--|-----------------------------|||-7-7-7--7-7-7--7-7-7--7-7-7--|-7-7-7--7-7-7--7-7-7--7-7-7--|||-5-5-5--5-5-5--5-5-5--5-5-5--|-7-7-7--7-7-7--7-7-7--7-7-7--|||-----------------------------|-5-5-5--5-5-5--5-5-5--5-5-5--|
Intro!||-----------------------------|-----------------------------|||-----------------------------|-----------------------------|||---------------4-4-4--4-4-4--|--------7-7-7--7-7-7--7-7-7--|||-7-7-7--7-7-7--4-4-4--4-4-4--|-4-4-4--7-7-7--7-7-7--7-7-7--|||-7-7-7--7-7-7--2-2-2--2-2-2--|-4-4-4--5-5-5--5-5-5--5-5-5--|||-5-5-5--5-5-5----------------|-2-2-2-----------------------|
Verse#2
||-----------------------------|-----------------------------|||-----------------------------|-----------------------------|||--------7-7-7--7-7-7--7-7-7--|-7-7-7--7-7-7--7-7-7--7-7-7--|||-4-4-4--7-7-7--7-7-7--7-7-7--|-7-7-7--7-7-7--7-7-7--7-7-7--|||-4-4-4--5-5-5--5-5-5--5-5-5--|-----------------------------|||-2-2-2-----------------------|-5-5-5--5-5-5--7-7-7--7-7-7--|
||-----------------------------|||-----------------------------|||--------7-7-7--7-7-7--7-7-7--|||-4-4-4--7-7-7--7-7-7--7-7-7--|||-4-4-4--5-5-5--4-4-4---------|||-2-2-2----------------7-7-7--|
Chorus#1
||-----------------------------|-----------------------------|||-----------------------------|-----------------------------|||-----------------------------|-7-7-7--7-7-7--7-7-7--7-7-7--|||-7-7-7--7-7-7--6-6-6--6-6-6--|-7-7-7--7-7-7--7-7-7--7-7-7--|||-7-7-7--7-7-7--7-7-7--7-7-7--|-5-5-5--5-5-5--5-5-5--5-5-5--|||-5-5-5--5-5-5--4-4-4--4-4-4--|-----------------------------|
||-----------------------------|-----------------------------|||-----------------------------|-----------------------------|||---------------4-4-4--4-4-4--|-7-7-7--7-7-7--7-7-7--7-7-7--|||-7-7-7--7-7-7--4-4-4--4-4-4--|-7-7-7--7-7-7--7-7-7--7-7-7--|||-7-7-7--7-7-7--2-2-2--2-2-2--|-5-5-5--5-5-5--5-5-5--5-5-5--|||-5-5-5--5-5-5----------------|-----------------------------|
||-----------------------------|-----------------------------|||---------------3-3-3--3-3-3--|-----------------------------|||-2-2-2--2-2-2--4-4-4--4-4-4--|-2-2-2--2-2-2--7-------------|||-4-4-4--4-4-4--4-4-4--4-4-4--|-2-2-2--2-2-2--7------6------|||-4-4-4--4-4-4--2-2-2--2-2-2--|-0-0-0--0-0-0--5------7------|||-2-2-2--2-2-2----------------|----------------------4------|
Bridge
||--------|-4------|-------|---------------------------------|||--------|-5--5---|-3-----|---------------------------------|||-2------|-6----6-|-4-----|-7-7-7-7-7-7-7-7-7-7-7-7-7-7-7-7-|||-4------|-6------|-4-----|-7-7-7-7-7-7-7-7-7-7-7-7-7-7-7-7-|||-4------|-4------|-2-----|-5-5-5-5-5-5-5-5-5-5-5-5-5-5-5-5-|||-2------|--------|-------|---------------------------------|
||-----------------------------|-----------------------------|||-----------------------------|-----------------------------|||-----------------------------|-----------------------------|||---4-4--4-4-4--4-4-4--4-4-4--|-4-4-4--4-4-4--6-6-6--6-6-6--|||-0-4-4--4-4-4--4-4-4--4-4-4--|-4-4-4--4-4-4--7-7-7--7-7-7--|||-0-2-2--2-2-2--2-2-2--2-2-2--|-2-2-2--2-2-2--4-4-4--4-4-4--|
||-----------------------------|--------------------|--------|||-----------------------------|---------------3----|-0------|||-6-6-6--6-6-6--7-7-7--7-7-7--|-7-7-7--7-7-7--4----|-1------|||-7-7-7--7-7-7--7-7-7--7-7-7--|-7-7-7--7-7-7--4----|-2------|||-4-4-4--4-4-4--5-5-5--5-5-5--|-5-5-5--5-5-5--2----|-2------|||-----------------------------|--------------------|-0------|
||-----------------------------|-----------------------------|||-----------------------------|-----------------------------|||-----------------------------|-----------------------------|||---4-4--4-4-4--4-4-4--4-4-4--|-4-4-4--4-4-4--6-6-6--6-6-6--|||-0-4-4--4-4-4--4-4-4--4-4-4--|-4-4-4--4-4-4--7-7-7--7-7-7--|||-0-2-2--2-2-2--2-2-2--2-2-2--|-2-2-2--2-2-2--4-4-4--4-4-4--|
||-----------------------------|-----------------------------|||-----------------------------|-----------------------------|||-6-6-6--6-6-6--7-7-7--7-7-7--|-7-7-7--7-7-7--7-7-7--7-7-7--|||-7-7-7--7-7-7--7-7-7--7-7-7--|-7-7-7--7-7-7--7-7-7--7-7-7--|||-4-4-4--4-4-4--5-5-5--5-5-5--|-5-5-5--5-5-5--5-5-5--5-5-5--|||-----------------------------|-----------------------------|
||-----------------------------|-----------------------------|||-3-3-3--3-3-3--3-3-3--3-3-3--|-----------------------------|||-4-4-4--4-4-4--4-4-4--4-4-4--|-----------------------------|||-4-4-4--4-4-4--4-4-4--4-4-4--|-2-2-2--2-2-2--2-2-2--2-2-2--|||-2-2-2--2-2-2--2-2-2--2-2-2--|-2-2-2--2-2-2--2-2-2--2-2-2--|||-----------------------------|-0-0-0--0-0-0--0-0-0--0-0-0--|
||-----------------------------|-----------------------------|||-----------------------------|-----------------------------|||-2-------------2-------------|-2-------------7-------------|||-2-4-4--4-4-4--2-4-4--4-4-4--|-2-4-4--4-4-4--7------6------|||-0-4-4--4-4-4--0-4-4--4-4-4--|-0-4-4--4-4-4--5------7------|||---2-2--2-2-2----2-2--2-2-2--|---2-2--2-2-2---------4------|
Chorus#2
||-----------------------------|-----------------------------|||-----------------------------|-----------------------------|||-----------------------------|-7-7-7--7-7-7--7-7-7---------|||-7-7-7--7-7-7--6-6-6--6-6-6--|-7-7-7--7-7-7--7-7-7--6-6-6--|||-7-7-7--7-7-7--7-7-7--7-7-7--|-5-5-5--5-5-5--5-5-5--7-7-7--|||-5-5-5--5-5-5--4-4-4--4-4-4--|----------------------4-4-4--|
||-----------------------------|-----------------------------|||-----------------------------|-----------------------------|||---------------4-4-4--4-4-4--|-7-7-7--7-7-7--7-7-7---------|||-7-7-7--7-7-7--4-4-4--4-4-4--|-7-7-7--7-7-7--7-7-7--6-6-6--|||-7-7-7--7-7-7--2-2-2--2-2-2--|-5-5-5--5-5-5--5-5-5--7-7-7--|||-5-5-5--5-5-5----------------|----------------------4-4-4--|
||---------------------------------|---------------------------------|||---------------------------------|---------------------------------|||---------------------------------|-7-7-7-7-7-7-7-7-----------------|||-7-7-7-7-7-7-7-7-6-6-6-6-6-6-6-6-|-7-7-7-7-7-7-7-7-4-4-4-4-4-4-4-4-|||-7-7-7-7-7-7-7-7-7-7-7-7-7-7-7-7-|-5-5-5-5-5-5-5-5-4-4-4-4-4-4-4-4-|||-5-5-5-5-5-5-5-5-4-4-4-4-4-4-4-4-|-----------------2-2-2-2-2-2-2-2-|
||--------|--------|--------|--------|||--------|--------|--------|-10-----|||--------|-7------|--------|-11-----|||-3------|-7------|-6------|-11-----|||-3------|-5------|-7------|-9------|||-1------|--------|-4------|--------|
Tap to rate this tab
 
# A B C D E F G H I J K L M N O P Q R S T U V W X Y Z