The Forsaken - Hatebreed tab

The Forsaken
“The Hatebreed”
from album “Arts of desolation”


/ - Slide up to
\ - Slide down to
h – Hammer on
p – Pull off
~ - Artificial harmonic

Tuning – 1:B 2:E 3:A 4:D 5:F# 6:B

Intro|--------------------------|--------------------------||--------------------------|--------------------------||--------------------------|--------------------------||--------------------------|--------------------------||-333333222222-------------|-333333222222-------------||--------------000-000-000-|--------------0-2-3-0-3-5-|
|--------------------------||--------------------------||--------------------------||--------------------------||-333333222222-------------||--------------000-000-000-|
Riff 1|--------------------------|--------------------------||--------------------------|--------------------------||--------------------------|--------------------------||--------------------------|--------------------------||-333333222222-------------|-333333222222-------------||--------------000-000-000-|--------------0-2-3-0-3-5-|
|--------------------------|--------------------------||--------------------------|--------------------------||--------------------------|--------------------------||--------------------------|-------------555555444444-||-333333222222-------------|-333333222222-------------||--------------000-000-000-|--------------------------|
Riff 2Guit I|--------------------------|------------------------------||--------------------------|------------------------------||--------------------------|------------------------------||-444444-------------------|-444444-----------------------||-------333333-------------|-------333333-----------------||--------------4-3-3-4-3-3-|--------------443-3-3-443-3-3-|
Guit II ||--------------------------|------------------------------||--------------------------|------------------------------||--------------------------|------------------------------||-777777-------------------|-777777-----------------------||-------666666-------------|-------666666-----------------||--------------7-6-6-7-6-6-|--------------776-6-6-776-6-6-|
Guit I|--------------------------|------------------------------||--------------------------|------------------------------||--------------------------|------------------------------||-444444-------------------|-444444------------555555-----||-------333333-------------|-------333333-----------------||--------------4-3-3-4-3-3-|-------------333333-----------|
Guit II ||--------------------------|------------------------------||--------------------------|------------------------------||--------------------------|-------------------888888-----||-777777-------------------|-777777-----------------------||-------666666-------------|-------666666-----------------||--------------7-6-6-7-6-6-|-------------666666-----------|
Riff 3|-------------------------|--------------------------||-------------------------|--------------------------||-------------------------|--------------------------||-------------------------|-555555------444444-------||-------------555555------|-------------------666655-||-333333444433------666633|-------666633-------------|
|-------------------------|--------------------------||-------------------------|--------------------------||-------------------------|--------------------------||-------------------------|-555555------444444444444-||-------------555555------|--------------------------||-333333444433------666633|-------666633-------------|
Riff 4Guit I|-------------------------|--------------------------||-------------------------|--------------------------||-------------------------|--------------------------||-------777777777777------|-777777888877-------------||---7------------------7--|-------------888888777755-||-5---8--------------5---8|--------------------------|
Guit II ||-------------------------|--------------------------||-------------------------|--------------------------||-------------------------|--------------------------||-------------------------|--------------------------||-------777777777777------|-777777888877555555-------||-5-8-5--------------5-8-5|-------------------888877-|
Guit I|-------------------------|---------------------------||-------------------------|---------------------------||-------------------------|---------------------------||-------------------------|---------------------------||-------------------------|-555555-------888888-------||-5-7-8-444444444444-7-5-4|--------7-5-4--------7-5-4-|
Guit II ||-------------------------|---------------------------||-------------------------|---------------------------||-------------------------|---------------------------||-------------------------|-333333-------666666-------||---2-3-222222222222-5-3-2|--------5-3-2--------5-3-2-||-5-----------------------|---------------------------|
Riff 5|-------------------------|-------------------------||-------------------------|-------------------------||-------------------------|-------------------------||-------------------------|-------------------------||-7-----7-----8-----8-----|-6-----6-----7-----7-----||---5-5---5-5---5-5---5-5-|---5-5---5-5---5-5---5-5-|
Guit I|-------------------------|-------------------------||-------------------------|-------------------------||-------------------------|-------------------------||-------------------------|-------------------------||-8-----8-----7-----7-----|-------------------555555||---4-4---4-4---4-4---4-4-|-000000444444777777------|
Guit II ||-------------------------|-------------------------||-------------------------|-------------------------||-------------------------|-------------------------||-------------------------|-------------------------||-8-----8-----7-----7-----|-------------555555888888||---4-4---4-4---4-4---4-4-|-444444777777------------|
Riff 1 Riff 3 Riff 5
Riff 6|---------------------------------|---------------------------------||---------------------------------|---------------------------------||---------------------------------|---------------------------------||-2h5p2---2h5p2---2h5p2---2h5p2---|-1h4p1---1h4p1---1h4p1---1h4p1---||---------------------------------|---------------------------------||-------0-------0-------0-------0-|-------0-------0-------0-------0-|
|---------------------------------|---------------------------------||---------------------------------|---------------------------------||-----------------2h5p2-----------|---------------------------------||-2h5p2---2h5p2-----------4h7p4---|-1h4p1---1h4p1---1h4p1---1h4p1---||-----------------------0-------0-|-------2-------2-------2-------2-||-------0-------0-----------------|---------------------------------|
Break|-------------------------|-------------------------||-------------------------|-------------------------||-------------------------|-------------------------||-------------------------|-------------------------||-------------------------|-------------------------||-0-0-0-------------0-0-0-|-------------0-0-0-6-5-0-|
Riff 7|-----------------------------|-----------------------------||-----------------------------|-----------------------------||-----------------------------|-----------------------------||-----------------------------|-----------------------------||-------3h6p3h6-2h5p2h5p------|-3h6p3h6-2h5p2h5-------------||-0-0-0-----------------0-0-0-|-----------------0-0-0-6-5-0-|
|------------------------------|--------------------------||------------------------------|--------------------------||------------------------------|--------------------------||------------------------------|--------------------------||-5h8p5h8-4h7p4h7-------5h8p5h8|4h7p4h7-------------------||-----------------0-0-0--------|--------0-0-0-6-5-5-0-0-0-|
|------------------------------|---------------------||------------------------------|---------------------||------------------------------|---------------------||------------------------------|---------------------||-3h6p3h6-2h5p2h5-------3h6p3h6|-2h5p2h5-------------||-----------------0-0-0--------|---------0-0-0-6-5-0-|
|-----------------------------|----------------------------||-----------------------------|----------------------------||-----------------------------|----------------------------||-----------------------------|----------------------------||-------5h8p5h8-4h7p4h7-------|5h8p5h8-4h7p4h7-------------||-0-0-0-----------------0-0-0-|----------------0-0-0-6-5-0-|
|-----------------------------|----------------------------||-----------------------------|----------------------------||-----------------------------|----------------------------||-----------------------------|----------------------------||-------3h6p3h6-2h5p2h5-------|3h6p3h6-2h5p2h5-------------||-0-0-0-----------------0-0-0-|----------------0-0-0-6-5-0-|
|------------------------------|---------------------------||------------------------------|---------------------------||------------------------------|---------------------------||------------------------------|---------------------------||-5h8p5h8-4h7p4h7-------5h8p5h8|-4h7p4h7-------------------||-----------------0-0-0--------|---------0-0-0-6-5-0-0-0-0-|
|------------------------------|---------------------------||------------------------------|---------------------------||------------------------------|---------------------------||------------------------------|---------------------------||-3h6p3h6-2h5p2h5-------3h6p3h6|-2h5p2h5-------------------||-----------------0-0-0--------|---------0-0-0-6-5-0-0-0-0-|
Solo 1a|-------------------------|-------------------------||-------------------------|-------------------------||-------------------------|-------------------------||-9---9-------9---9-------|-9---9-------9---9-------||-7---7-------7---7-------|-6---6-------6---6-------||-------0-0-0-------0-0-0-|-------0-0-0-------0-0-0-|
|-------------------------|-------------------------||-------------------------|-------------------------||-------------------------|-------------------------||-9---9-------------------|-------------------------||-7---7-------7----10-----|-9---9-------9---9-------||-------0-0-0-5-----8-----|-7---7-7-7-7-7---7-7-7-7-|
Solo 1b|-------------------------|-------------------------||-------------------------|-------------------------||-------------------------|-------------------------||-------------------------|-------------------------||-------7----10-----7--10-|-------7----10-----7--10-||-0-0-0---0-0---0-0---0---|-0-0-0---0-0---0-0---0---|
|-------------------------|-------------------------||-------------------------|-------------------------||-------------------------|-------------------------||-------------------------|-------------------------||-------7-----3-----7-----|-6-----------6-----6-7-9-||-0-0-0---0-0-5-----8-----|-7---7-7-7-7---7-7-------|
Solo 2a|-------------------------|-------------------------||-------------------------|-------------------------||-------------------------|-------------------------||-------5-----------------|-------5-----------------||-----------5-------6---5-|-----------5-------6---5-||-3-3-3---3---3-3-3---3---|-3-3-3---3---3-3-3---3---|
|-------------------------|-------------------------||-------------------------|-------------------------||-------------------------|-------------------------||-------8---7-------7---8-|-------5-----------5-----||-6-6-6---6---6-6-6---6---|-3-3-3---3-6-3-3-3---3-5-||-------------------------|-------------------------|
|-------------------------|-------------------------||-------------------------|-------------------------||-------------------------|-------------------------||-------5-----------------|-------5-----------------||-----------5-------6---5-|-----------5-------6---5-||-3-3-3---3---3-3-3---3---|-3-3-3---3---3-3-3---3---|
|-------------------------|-------------------------||-------------------------|-------------------------||-------------------------|-------------------------||-------------------------|-------------------------||-------8-----------4-----|-3-----------------3-----||-6-6-6---6-6-2-2-2---2-2-|-1-111-1-1-1-1-111---1-1-|
Solo 2b|-------------------------|-------------------------||-------------------------|-------------------------||-------------------------|-------------------------||-------3-4-3-222222222222|--------3-4-3------------| X2|-111111------------------|111111-------444444444444||-------------------------|-------------------------|
Solo 2c|-------------------------|-------------------------||-------------------------|-------------------------||-------------------------|-------------------------||-------------------------|-------------------------||-------------999999999999|555555555555-------------||-666666666666------------|------------444444444444-|
|-------------------------|-------------------------||-------------------------|-------------------------||-------------------------|-------------------------||-------------------------|-------------------------||-------------999999999999|555555555555-------------||-666666666666------------|------------000000444444-|
Riff 5 Riff 1 Riff 2 Riff 3 Riff 4 Riff 4b (same as riff 4 but a full step down)
Tap to rate this tab
 
# A B C D E F G H I J K L M N O P Q R S T U V W X Y Z