The Forsaken - Betrayal Within Individuals tab

The Forsaken
“Betrayal within individuals”
from album “Manifest of Hate”



/ - Slide up to
\ - Slide down to 
h – Hammer on
p – Pull off
~ - Artificial harmonic
. – Palm mute
Tuning – 1:C 2:F 3:Bb 4:D# 5:G# 6:C


IntroGuit. I|----------------------------------------||-10-9h10p9------------------------------||----------10-9-7-9-10-9-7---------------||-------------------------10-9-7-6-------||----------------------------------8-----||----------------------------------------|
Guit. II ||----------------------------------------||--5-4h5p4-------------------------------||----------5-4-2-4-5-4-2-----------------||------------------------5-4-2-1---------||--------------------------------3-------||----------------------------------------|
Riff 1|-------------------------------------------------------||-------------------------------------------------------||-------------------------------------------------------||-------------------7h8p7-------------------7-----------||-7-----7-----8-----------8-7-----7-----7-8---8-7-5-----||---0-0---0-0---0-0-----------0-0---0-0-----------------|
|-------------------------------------------------------||-------------------------------------------------------||-------------------------------------------------------||-------------------7h8p7-------------------------------||-7-----7-----8-----------8-7-----7-----7-5-------------||---0-0---0-0---0-0-----------0-0---0-0-----8-7-5-4-----|
Riff 2|-------------------------------------------------||-------------------------------------------------||-------------------------------------------------||-------------9-----------------9-----7-----------||-7----10----------10-9-7------------------10---9-||---000---000---000------10-777---777---777---77--|
|-------------------------------------------------||-------------------------------------------------||-------------------------------------------------||-------------------7-----------9-----9-7---------||-7----10-----9----------10--------------10-9-7-6-||---000---000---000---000---888---888-------------|
Riff 3|-------------------------------------||-------------------------------------||-------------------------------------||-9-7---9-----------9-7---------------||----10----------------10-9-----------||---------000-0-0-0---------777-7-7-7-|
|-------------------------------------||-------------------------------------||-------------------------------------||10-9-7-10---------10-9---------------||----------------------10-7-----------||---------888-8-8-8---------000-0-0-0-|
|-------------------------------------||-------------------------------------||-------------------------------------||-9-7---9-----------9-7---------------||----10----------------10-9-----------||---------000-0-0-0---------777-7-7-7-|
|-------------------------------------||-------------------------------------||-------------------------------------||10-9-7-10---------10-9---------------||---------000-0-0-0----10-7-----------||---------------------------000-0-0-0-|
BridgeGuit. I|--------------------------------------------------------||-10-9h10p9----------------------------------------------||----------10-9-7-9-10-9-7------10-9-7-------------------||-------------------------10-9-7------10-9-7-6-----------||----------------------------------------------8-7-5-----||----------------------------------------------------8-7-|
Guit.II ||--------------------------------------------------------||--------------------------------------------------------||--------------------------------------------------------||-------------------------------10-9-7-------------------||-------------------------------------10-9-7-6----10-9-6-||----------------------------------------------8-7-------|
Riff 1 Riff 2
Riff 4|----------------------------------------------||----------------------------------------------||----------------------------------------------||----------------------------------------------||-------7h10--6h9---9h12--7h10--6h9---9h12p9-6-||-0-000-----0-----0-----0-----0-----0----------|
|----------------------------------------------||----------------------------------------------||----------------------------------------------||----------------------------------------------||-------7h10--6h9---9h12--7h10--6h9------------||-0-000-----0-----0-----0-----0-----0-8h12p8-7-|
Guit. I|----------------------------------------------||----------------------------------------------||----------------------------------------------||----------------------------------------------||-------7h10--6h9---9h12--7h10--6h9---9h12p9-6-||-0-000-----0-----0-----0-----0-----0----------|
Guit. II ||----------------------------------------------||----------------------------------------------||----------------------------------------------||-------5h9---4h7---7h10--5h9---4h7---7h10p7---||--------------------------------------------9-||-0-000-----0-----0-----0-----0-----0----------|
Guit. I|----------------------------------------------||----------------------------------------------||----------------------------------------------||----------------------------------------------||-------7h10--6h9---9h12--7h10--6h9------------||-0-000-----0-----0-----0-----0-----0-8h12p8-7-|
Guit. II ||----------------------------------------------||----------------------------------------------||----------------------------------------------||-------5h9---4h7---7h10--5h9---4h7------------||-------------------------------------7h10p7-6-||-0-000-----0-----0-----0-----0-----0----------|
Riff 5Guit. I|----------------------------------------------||----------------------------------------------||----------------------------------------------||-------------------------------------7--------||------10-----------9----------10------10-9-7--||-0-000-------0-000-------0-000----------------|
Guit. II ||----------------------------------------------||----------------------------------------------||----------------------------------------------||-------9-----------7-----------9----10-9-7----||------------------------------------------10--||-0-000-------0-000-------0-000----------------|
Guit. I|-------------------------------------------------||-------------------------------------------------||-------------------------------------------------||-------------------------------------7-----9-7---||------10-----------9----------10-9-7--10-9----10-||-7-777-------7-777-------8-888-------------------|
Guit. II | |-------------------------------------------------||-------------------------------------------------||-------------------------------------------7-----||-------9-----------7-----------9-7--10-9-7--10-9-||----------------------------------10-------------||-7-777-------7-777-------8-888-------------------|
Guit. I|-------------------------------------------------||-------------------------------------------------||-------------------------------------------------||-------------------------------7-----9-7--10-9-7-||------10-----------9----10-9-7--10-9----10-------||-7-777-------7-777-------------------------------|
Guit. II | |-------------------------------------------------||-------------------------------------------------||-------------------------------------7-----9-7---||-------9-----------7-----9-7--10-9-7--10-9----10-||----------------------------10-------------------||-7-777-------7-777-------------------------------|
Riff 6 (solo)|-------------------------------------------------||-------------------------------------------------||-------9-----------7-----------5-----------4-----||------10-----------9-----------7-----------6-----||-0-0-0-------0-0-0-------0-0-0-------0-0-0-------||-------------------------------------------------|
|-------------------------------------------------||-------------------------------------------------||-------------------------------------------------||-------9------------7----------6-----------6-----||-------7------------7----------7-----------7-----||-0-0-0--------0-0-0------0-0-0-------0-0-0-------|
Riff 7|-------------------------------------------------||-------------------------------------------------||-------------------------------------------------||-------------------------------------------------||-----------------2---1---2-----------------2-----||-000-000-000-000-3---2---3-000-0-000-0-2-3---3-2-|
|-------------------------------------------------||-------------------------------------------------||-------------------------------------------------||-------------------------------------------------||-----------------2---1---2-----------7-----------||-000-000-000-000-3---2---3-000-0-000---666-5-333-|
BridgeGuit. I|-------------------------------------------||-------------------------8-7---------------||-----------------------------9-8-----------||-------------9-7----------------10-9-7-----||10-9-7-6--------10-9-7-6--------------10-9-||---------8-7-------------------------------|
Guit. II ||-------------------------7-----------------||--------------------------10-8-7-----------||-------------7-------------------9-8-------||-9-7----------10-9-7----------------10-9-7-||----10-9-7-6--------10-9-------------------||-------------------------------------------|
Riff 3
Bridge|----------------------------------------||----------------------------------------||----------------------------------------||-5-----4-----9-----8--------------------||-7-----6----10-----9--------------------||----------------------------------------|
Riff 1 Riff 2 Riff 4
EndingGuit. I|----------------------------------------------||----------------------------------------------||----------------------------------------------||----------------------------------------------||-------7h10--6h9---9h12--7h10--6h9---2-2-2-2--||-0-000-----0-----0-----0-----0-----0-0-0-0-0--|
Guit. II ||----------------------------------------------||----------------------------------------------||----------------------------------------------||-------5h9---4h7---7h10--5h9---4h7------------||-------------------------------------2-2-2-2--||-0-000-----0-----0-----0-----0-----0-0-0-0-0--|
Guit. I|----------------------------------------------||----------------------------------------------||----------------------------------------------||----------------------------------------------||-------7h10--6h9---9h12--7h10--6h9------------||-0-000-----0-----0-----0-----0-----0-8h12p8-7-|
Guit. II ||----------------------------------------------||----------------------------------------------||----------------------------------------------||-------5h9---4h7---7h10--5h9---4h7------------||-------------------------------------7h10p7-6-||-0-000-----0-----0-----0-----0-----0----------|
Guit. I|----------------------------------------------||----------------------------------------------||----------------------------------------------||----------------------------------------------||-------7h10--6h9---9h12--7h10--6h9---2-2-2-2--||-0-000-----0-----0-----0-----0-----0-0-0-0-0--|
Guit. II ||----------------------------------------------||----------------------------------------------||----------------------------------------------||-------5h9---4h7---7h10--5h9---4h7------------||-------------------------------------2-2-2-2--||-0-000-----0-----0-----0-----0-----0-0-0-0-0--|
Guit. I|---------------------------------------------------||---------------------------------------------------||---------------------------------------------------||---------------------------------------------------||-------7h10--6h9---9h12--7h10--6h9---------------2-||-0-000-----0-----0-----0-----0-----0-3-2-3-2-3-2-0-|
Guit. II ||---------------------------------------------------||---------------------------------------------------||---------------------------------------------------||-------5h9---4h7---7h10--5h9---4h7-----------------||-------------------------------------------------2-||-0-000-----0-----0-----0-----0-----0-3-2-3-2-3-2-0-|
|----------------------------------------||----------------------------------------||----------------------------------------||-2--------------------------------------||-2--------------------------------------||-0--------------------------------------|
Tap to rate this tab
 
# A B C D E F G H I J K L M N O P Q R S T U V W X Y Z