The Ghost Inside – Inherent Youth tab

Song: Inherent Youth 
Artist: The Ghost Inside
Album: Fury And The Fallen Ones
Year: 2008
Tuning: Drop B

Guitar 1IntroC#||--------------------------|--------------------------|G#||--------------------------|--------------------------|E ||--------------------------|--------------------------|B ||--------------------------|--------------------------|F#||--3--0--0--1--0--0--3--4--|--3--0--0--1--0--4--4--4--|B ||--3--0--0--1--0--0--3--4--|--3--0--0--1--0-----------|
PM PM PM PM PM PM PM --------------------------|---------------------------|--------------------------|---------------------------|--------------------------|---------------------------|--------------------------|---------------------------|--3--0--0--1--0--0--3--4--|---------------------------|--3--0--0--1--0--0--3--4--|--3s--8--8--8--8--7--7--7--| PM PM PM PM
Verse --------------------------|---------------------------|--------------------------|---------------------------|--------------------------|--10-----------9-----------|--------------------------|---x-----------x-----------|--0--0--0--0--1--0--0--0--|---8--0--0--0--7--0--0--0--|--0--0--0--0--1--0--0--0--|------0--0--0-----0--0--0--|
PM PM PM PM PM PM PM PM PM PM PM PM ----------------------------------|---------------------------|----------------------------------|---------------------------|--12--12--12--12--12--12--12--12--|---------------------------|---x---x---x---x---x---x---x---x--|---------------------------|--10--10--10--10--10--10--10--10--|---------------------------|----------------------------------|--3s--8--8--8--8--7--7--7--|
--------------------------|---------------------------|--------------------------|---------------------------|--------------------------|--10-----------9-----------|--------------------------|---x-----------x-----------|--0--0--0--0--1--0--0--0--|---8--0--0--0--7--0--0--0--|--0--0--0--0--1--0--0--0--|------0--0--0-----0--0--0--|
PM PM PM PM PM PM PM PM PM PM PM PM ----------------------------------|----------------------------------|----------------------------------|----------------------------------| X2--12--12--12--12--12--12--12--12--|--12--10--10--10--10--10--10--10--|---x---x---x---x---x---x---x---x--|---x---x---x---x---x---x---x---x--|--10--10--10--10--10--10--10--10--|--10---8---8---8---8---8---8---8--|----------------------------------|----------------------------------|
Verse 2-----------------------|--------------------------|-----------------------|--------------------------|-----------------------|--------------------------|-----------------------|--------------------------|--------------5--------|-----0--0-----0-----0--0--|-----------------8--5--|--7--0--0--5--0--7--0--0--|
PM PM PM PM PM --------------------------|--------------------------|--------------------------|--------------------------|--------------------------|--------------------------|--------------------------|--------------------------|--------------------------|--0--0--0-----0-----0--0--|--0--1--1--1--0--4--1--1--|--0--0--0--5--0--7--0--0--|
PM PM PM PM PM --------------------------|--------------------------|--------------------------|--------------------------|--------------------------|--------------------------|--------------------------|--------------------------|--0-----0-----0--5--------|-----0--0-----0-----0--0--|--0--8--0--7--0-----8--5--|--7--0--0--5--0--7--0--0--|
PM PM PM PM PM PM PM PM --------------------------|--------------------------|--------------------------|--------------------------|--------------------------|--------------------------|--------------------------|--------------------------|--------------------------|--0--0--0-----0-----0--0--|--0--1--1--1--0--4--1--1--|--0--0--0--5--0--7--0--0--|
PM PM PM PM PM --------------------------|--------------------------|--------------------------|--------------------------|--------------------------|--------------------------|--------------------------|--------------------------|--0-----0-----0--5--------|-----0--0-----0-----0--0--|--0--8--0--7--0-----8--5--|--7--0--0--5--0--7--0--0--|
PM PM PM PM PM PM PM PM --------------------------|--------------------------|--------------------------|--------------------------|--------------------------|--------------------------|--------------------------|--------------------------|--------------------------|--0--0--0-----0-----0--0--|--0--1--1--1--0--4--1--1--|--0--0--0--5--0--7--0--0--|
PM PM PM PM PM --------------------------|--------------------------|--------------------------|--------------------------|--------------------------|--------------------------|--------------------------|--------------------------|--0-----0-----0--5--------|-----0--0-----0-----0--0--|--0--8--0--7--0-----8--5--|--7--0--0--5--0--7--0--0--| PM PM PM PM PM PM PM PM
--------------------------|--------------------------|--------------------------|--------------------------|--------------------------|--0--1--1--1--0--4--1--1--|
Chorus------------------------------|------------------------------|------------------------------|------------------------------|--12--12----12--12--12----12--|--12--12----12--12--12----12--|---x---x-----x---x---x-----x--|---x---x-----x---x---x-----x--|--10--10----10--10--10----10--|--10--10----10--10--10----10--|------------------------------|------------------------------|
------------------------------|---------------------------|------------------------------|---------------------------|--12--12----12--12--12----12--|--14--14----14--9--9----9--|---x---x-----x---x---x-----x--|---x---x-----x--x--x----x--|--10--10----10--10--10----10--|--12--12----12--7--7----7--|------------------------------|---------------------------|
------------------------------|------------------------------|------------------------------|------------------------------|--10--10----10--10--10----10--|--10--10----10--10--10----10--|---x---x-----x---x---x-----x--|---x---x-----x---x---x-----x--|---8---8-----8---8---8-----8--|---8---8-----8---8---8-----8--|------------------------------|------------------------------|
------------------------------|------------------------------|------------------------------|------------------------------|--10--10----10--10--10----10--|--10--10----10--14--14----14--|---x---x-----x---x---x-----x--|---x---x-----x---x---x-----x--|---8---8-----8---8---8-----8--|---8---8-----8--12--12----12--|------------------------------|------------------------------|
------------------------------|------------------------------|------------------------------|------------------------------|--12--12----12--12--12----12--|--12--12----12--12--12----12--|---x---x-----x---x---x-----x--|---x---x-----x---x---x-----x--|--10--10----10--10--10----10--|--10--10----10--10--10----10--|------------------------------|------------------------------|
------------------------------|---------------------------|------------------------------|---------------------------|--12--12----12--12--12----12--|--14--14----14--9--9----9--|---x---x-----x---x---x-----x--|---x---x-----x--x--x----x--|--10--10----10--10--10----10--|--12--12----12--7--7----7--|------------------------------|---------------------------|
--------------------------|--------------------------|--------------------------|--------------------------|--7--7--7--7--7--7--7--7--|--7--7--7--7--7--7--7--7--|--x--x--x--x--x--x--x--x--|--x--x--x--x--x--x--x--x--|--5--5--5--5--5--5--5--5--|--5--5--5--5--5--5--5--5--|--------------------------|--------------------------|
--------------------------|--------------------------|--5--5--5--5--5--5--5--5--|--x--x--x--x--x--x--x--x--|--3--3--3--3--3--3--3--3--|--------------------------|
Verse---------------------------|--------------------------|---------------------------|--------------------------|---------------------------|--------------------------|---------------------------|--------------------------|------------------0--------|-----0--0--0--1--0--0--0--|---------------0--0--------|-----0--0--0--1--0--0--0--|
PM PM PM PM PM PM PM ---------------------------|----------------------------------|---------------------------|----------------------------------|--10-----------9-----------|--12--12--12--12--12--12--12--12--|---x-----------x-----------|---x---x---x---x---x---x---x---x--|---8--0--0--0--7--0--0--0--|--10--10--10--10--10--10--10--10--|------0--0--0-----0--0--0--|----------------------------------|
PM PM PM PM PM PM --------------------------|--------------------------|--------------------------|--------------------------|--------------------------|--------------------------|--------------------------|--------------------------|--------------------------|--0--0--0--0--1--0--0--0--|--0--8--8--8--8--7--7--7--|--0--0--0--0--1--0--0--0--|
PM PM PM PM PM PM ---------------------------|----------------------------------|---------------------------|----------------------------------|--10-----------9-----------|--12--12--12--12--12--12--12--12--|---x-----------x-----------|---x---x---x---x---x---x---x---x--|---8--0--0--0--7--0--0--0--|--10--10--10--10--10--10--10--10--|------0--0--0-----0--0--0--|----------------------------------|
PM PM PM PM PM PM ----------------------------------|----------------------------------| X2--12--10--10--10--10--10--10--10--|---x---x---x---x---x---x---x---x--|--10---8---8---8---8---8---8---8--|----------------------------------|
Verse 2--------------------------|--------------------------|--------------------------|--------------------------|--------------------------|--------------------------|--------------------------|--------------------------|--0--0--0-----0-----0--0--|--0-----0-----0--5--------|--0--0--0--5--0--7--0--0--|--0--8--0--7--0-----8--5--|
PM PM PM PM PM PM PM PM --------------------------|--------------------------|--------------------------|--------------------------| X3--------------------------|--------------------------|--------------------------|--------------------------|-----0--0-----0-----0--0--|--------------------------|--7--0--0--5--0--7--0--0--|--0--1--1--1--0--4--1--1--|
Breakdown-------------------------|--------------------------|-------------------------|--------------------------|-------------------------|--------------------------|-------------------------|--------------------------|--0--0--0-----0----------|-----8-----7-----5--------|--0--0--0--5--0--7-------|-----8-----7--------8--5--|
PM PM PM --------------------------|--------------------------|--------------------------|--------------------------|--------------------------|--------------------------|--------------------------|--------------------------|-----0--0-----0-----0--0--|--------------------------|--7--0--0--5--0--7--0--0--|--0--1--1--1--0--4--1--1--| PM PM PM PM PM
Chorus------------------------------|------------------------------|------------------------------|------------------------------|--12--12----12--12--12----12--|--12--12----12--12--12----12--|---x---x-----x---x---x-----x--|---x---x-----x---x---x-----x--|--10--10----10--10--10----10--|--10--10----10--10--10----10--|------------------------------|------------------------------|
------------------------------|---------------------------|------------------------------|---------------------------|--12--12----12--12--12----12--|--14--14----14--9--9----9--|---x---x-----x---x---x-----x--|---x---x-----x--x--x----x--|--10--10----10--10--10----10--|--12--12----12--7--7----7--|------------------------------|---------------------------|
------------------------------|------------------------------|------------------------------|------------------------------|--10--10----10--10--10----10--|--10--10----10--10--10----10--|---x---x-----x---x---x-----x--|---x---x-----x---x---x-----x--|---8---8-----8---8---8-----8--|---8---8-----8---8---8-----8--|------------------------------|------------------------------|
------------------------------|------------------------------|------------------------------|------------------------------|--10--10----10--10--10----10--|--10--10----10--14--14----14--|---x---x-----x---x---x-----x--|---x---x-----x---x---x-----x--|---8---8-----8---8---8-----8--|---8---8-----8--12--12----12--|------------------------------|------------------------------|
------------------------------|------------------------------|------------------------------|------------------------------|--12--12----12--12--12----12--|--12--12----12--12--12----12--|---x---x-----x---x---x-----x--|---x---x-----x---x---x-----x--|--10--10----10--10--10----10--|--10--10----10--10--10----10--|------------------------------|------------------------------|
------------------------------|---------------------------|------------------------------|---------------------------|--12--12----12--12--12----12--|--14--14----14--9--9----9--|---x---x-----x---x---x-----x--|---x---x-----x--x--x----x--|--10--10----10--10--10----10--|--12--12----12--7--7----7--|------------------------------|---------------------------|
--------------------------|--------------------------|--------------------------|--------------------------|--7--7--7--7--7--7--7--7--|--7--7--7--7--7--7--7--7--|--x--x--x--x--x--x--x--x--|--x--x--x--x--x--x--x--x--|--5--5--5--5--5--5--5--5--|--5--5--5--5--5--5--5--5--|--------------------------|--------------------------|
------------------------------|------------------------------|--5---------------------------|--x---------------------------|--3---------0--0--0--0--8\----|------------0--0--0--0--8\----| PM PM PM PM
Breakdown-------------------------|-----------------------|-------------------------|-----------------------|-------------------------|-----------------------|-------------------------|-----------------------|-------------------------|-----------1--0--3--4--|--3--0--0-------1--0--0--|-----------1--0--3--4--|
PM -------------------------|---------------------------------|-------------------------|---------------------------------|-------------------------|---------------------------------|-------------------------|---------------------------------|-------------------------|-----0-0--8--0-0--10--11--10--4--|--3--0--0-------1--0--0--|-----0-0--8--0-0--10--11--10--4--|
PMPM PMPM -------------------------|-----------------------|-------------------------|-----------------------|-------------------------|-----------------------|-------------------------|-----------------------|-------------------------|-----------1--0--3--4--|--3--0--0-------1--0--0--|-----------1--0--3--4--|
PM ----------------------0--|-----------------------|----------------------0--|-----------------------|----------------------0--|-----------------------|----------------------0--|-----------------------|----------------0--0--0--|--------------0--8\----|--3--0--0-------0--0-----|--------------0--8\----| PM PM PM
--------------------------|--------------------------|--------------------------|--------------------------|--------------------------|--------------------------|--------------------------|--------------------------|--3--0--0--0--0--1--0--0--|--0--0--0--0--1--0--3--4--|--3--0--0--0--0--1--0--0--|--0--0--0--0--1--0--3--4--|
PM PM PM PM PM PM PM --------------------------|---------------------------------|--------------------------|---------------------------------|--------------------------|---------------------------------|--------------------------|---------------------------------|--3--0--0--0--0--1--0--0--|--0--0-0--8--0-0--10--11--10--4--|--3--0--0--0--0--1--0--0--|--0--0-0--8--0-0--10--11--10--4--|
PM PM PM PMPM PMPM --------------------------|--------------------------|--------------------------|--------------------------|--------------------------|--------------------------|--------------------------|--------------------------|--3--0--0--0--0--1--0--0--|--0--0--0--0--1--0--3--4--|--3--0--0--0--0--1--0--0--|--0--0--0--0--1--0--3--4--|
PM PM PM PM PM PM PM --------------------------|-----------------------|--------------------------|-----------------------|--------------------------|-----------------------|--------------------------|-----------------------|--3--0--0--0--0--1--0--0--|--------------0--8\----|--3--0--0--0--0--1--0--0--|--------------0--8\----| PM PM PM
--------------------------|--------------------------|--------------------------|--------------------------|--------------------------|--------------------------|--------------------------|--------------------------|--3--0--0--0--0--1--0--0--|--0--0--0--0--1--0--3--4--|--3--0--0--0--0--1--0--0--|--0--0--0--0--1--0--3--4--|
PM PM PM PM PM PM PM --------------------------|---------------------------------|--------------------------|---------------------------------|--------------------------|---------------------------------|--------------------------|---------------------------------|--3--0--0--0--0--1--0--0--|--0--0-0--8--0-0--10--11--10--4--|--3--0--0--0--0--1--0--0--|--0--0-0--8--0-0--10--11--10--4--|
PM PM PM PMPM PMPM --------------------------|--------------------------|--------------------------|--------------------------|--------------------------|--------------------------|--------------------------|--------------------------|--3--0--0--0--0--1--0--0--|--0--0--0--0--1--0--3--4--|--3--0--0--0--0--1--0--0--|--0--0--0--0--1--0--3--4--|
PM PM PM PM PM PM PM -------------------------|---------------------------|-------------------------|---------------------------|----------------------8--|---------------------------|----------------------6--|---------------------------|--3--0--0-------1--0--6--|---------------------------|--3--0--0-------1--0--6--|---------------------------|
Guitar 2
IntroC#||--------------------------|--------------------------|G#||--------------------------|--------------------------|E ||--------------------------|--------------------------|B ||--------------------------|--------------------------|F#||--3--0--0--1--0--0--3--4--|--3--0--0--1--0--4--4--4--|B ||--3--0--0--1--0--0--3--4--|--3--0--0--1--0-----------|
PM PM PM PM PM PM PM --------------------------|--------------------------|--------------------------|--------------------------|--3--0--0--1--0--0--3--4--|--3--0--0--1--0--0--3--4--| PM PM PM PM
Verse --------------------------|---------------------------|--------------------------|---------------------------|--------------------------|--14----------12-----------|--------------------------|---x-----------x-----------|--0--0--0--0--1--0--0--0--|--12--0--0--0-10--0--0--0--|--0--0--0--0--1--0--0--0--|------0--0--0-----0--0--0--|
PM PM PM PM PM PM PM PM PM PM PM PM ----------------------------------|---------------------------|----------------------------------|---------------------------|--10--10--10--10--10--10--10--10--|---------------------------|---x---x---x---x---x---x---x---x--|---------------------------|---8---8---8---8---8---8---8---8--|---------------------------|----------------------------------|--3s--8--8--8--8--7--7--7--|
--------------------------|---------------------------|--------------------------|---------------------------|--------------------------|--14----------12-----------|--------------------------|---x-----------x-----------|--0--0--0--0--1--0--0--0--|--12--0--0--0-10--0--0--0--|--0--0--0--0--1--0--0--0--|------0--0--0-----0--0--0--|
PM PM PM PM PM PM PM PM PM PM PM PM ----------------------------------|-----------------------------------|----------------------------------|-----------------------------------| --10--10--10--10--10--10--10--10--|---10--14--14--14--14--14--14--14--|---x---x---x---x---x---x---x---x--|----x---x---x---x---x---x---x---x--|---8---8---8---8---8---8---8---8--|----8--12--12--12--12--12--12--12--|----------------------------------|-----------------------------------|
--------------------------|---------------------------|--------------------------|---------------------------|--------------------------|--14----------12-----------|--------------------------|---x-----------x-----------|--0--0--0--0--1--0--0--0--|--12--0--0--0-10--0--0--0--|--0--0--0--0--1--0--0--0--|------0--0--0-----0--0--0--|
PM PM PM PM PM PM PM PM PM PM PM PM ----------------------------------|---------------------------|----------------------------------|---------------------------|--10--10--10--10--10--10--10--10--|--10--7--7--7--7--9--9--9--|---x---x---x---x---x---x---x---x--|---x--x--x--x--x--x--x--x--|---8---8---8---8---8---8---8---8--|---8--5--5--5--5--7--7--7--|----------------------------------|---------------------------|
--------------------------|---------------------------|--------------------------|---------------------------|--------------------------|--14----------12-----------|--------------------------|---x-----------x-----------|--0--0--0--0--1--0--0--0--|--12--0--0--0-10--0--0--0--|--0--0--0--0--1--0--0--0--|------0--0--0-----0--0--0--|
PM PM PM PM PM PM PM PM PM PM PM PM ----------------------------------|-----------------------------------|----------------------------------|-----------------------------------| --10--10--10--10--10--10--10--10--|---10--14--14--14--14--14--14--14--|---x---x---x---x---x---x---x---x--|----x---x---x---x---x---x---x---x--|---8---8---8---8---8---8---8---8--|----8--12--12--12--12--12--12--12--|----------------------------------|-----------------------------------|
Verse 2
--------------------------|--------------------------|--------------------------|--------------------------|--------------------------|--------------------------|--------------------------|--------------------------|--0--0--0-----0-----0--0--|--0-----0-----0--5--------|--0--0--0--5--0--7--0--0--|--0--8--0--7--0-----8--5--|
PM PM PM PM PM PM PM PM --------------------------|--------------------------|--------------------------|--------------------------| X4--------------------------|--------------------------|--------------------------|--------------------------|-----0--0-----0-----0--0--|--------------------------|--7--0--0--5--0--7--0--0--|--0--1--1--1--0--4--1--1--| PM PM PM PM PM
Chorus
------------------------------|------------------------------|------------------------------|------------------------------| X2------------------------------|------------------------------|------------------------------|------------------------------|--10--10----10--10--10----10--|--10--10----10--10--10----10--|--10--10----10--10--10----10--|--10--10----10--10--10----10--|
------------------------|------------------------|------------------------|------------------------| X2------------------------|------------------------|------------------------|------------------------|--8--8----8--8--8----8--|--8--8----8--8--8----8--|--8--8----8--8--8----8--|--8--8----8--8--8----8--|
------------------------------|------------------------------|------------------------------|------------------------------| X2------------------------------|------------------------------|------------------------------|------------------------------|--10--10----10--10--10----10--|--10--10----10--10--10----10--|--10--10----10--10--10----10--|--10--10----10--10--10----10--|
----------------------------------|----------------------------------|----------------------------------|----------------------------------|--10--10--10--10--10--10--10--10--|--10--10--10--10--10--10--10--10--|---x---x---x---x---x---x---x---x--|---x---x---x---x---x---x---x---x--|---8---8---8---8---8---8---8---8--|---8---8---8---8---8---8---8---8--|----------------------------------|----------------------------------|
--------------------------|--------------------------|--------------------------|--------------------------|--9--9--9--9--9--9--9--9--|--------------------------|--x--x--x--x--x--x--x--x--|--------------------------|--7--7--7--7--7--7--7--7--|-----------------------0--|--------------------------|--0--0--8--0--7--8--0--0--| PM PM PM PM
Verse --------------------------|---------------------------|--------------------------|---------------------------|--------------------------|--14----------12-----------|--------------------------|---x-----------x-----------|-----0--0--0--1--0--0--0--|--12--0--0--0-10--0--0--0--|-----0--0--0--1--0--0--0--|------0--0--0-----0--0--0--|
PM PM PM PM PM PM PM PM PM PM PM PM ----------------------------------|--------------------------|----------------------------------|--------------------------|--10--10--10--10--10--10--10--10--|--------------------------|---x---x---x---x---x---x---x---x--|--------------------------|---8---8---8---8---8---8---8---8--|--------------------------|----------------------------------|--0--3--3--3--3--7--7--7--|
--------------------------|---------------------------|--------------------------|---------------------------|--------------------------|--14----------12-----------|--------------------------|---x-----------x-----------|--0--0--0--0--1--0--0--0--|--12--0--0--0-10--0--0--0--|--0--0--0--0--1--0--0--0--|------0--0--0-----0--0--0--|
PM PM PM PM PM PM PM PM PM PM PM PM ----------------------------------|-----------------------------------|----------------------------------|-----------------------------------| --10--10--10--10--10--10--10--10--|---10--14--14--14--14--14--14--14--|---x---x---x---x---x---x---x---x--|----x---x---x---x---x---x---x---x--|---8---8---8---8---8---8---8---8--|----8--12--12--12--12--12--12--12--|----------------------------------|-----------------------------------|
--------------------------|---------------------------|--------------------------|---------------------------|--------------------------|--14----------12-----------|--------------------------|---x-----------x-----------|--0--0--0--0--1--0--0--0--|--12--0--0--0-10--0--0--0--|--0--0--0--0--1--0--0--0--|------0--0--0-----0--0--0--|
PM PM PM PM PM PM PM PM PM PM PM PM ----------------------------------|--------------------------|----------------------------------|--------------------------|--10--10--10--10--10--10--10--10--|--------------------------|---x---x---x---x---x---x---x---x--|--------------------------|---8---8---8---8---8---8---8---8--|--------------------------|----------------------------------|--0--8--8--8--8--7--7--7--|
--------------------------|---------------------------|--------------------------|---------------------------|--------------------------|--14----------12-----------|--------------------------|---x-----------x-----------|--0--0--0--0--1--0--0--0--|--12--0--0--0-10--0--0--0--|--0--0--0--0--1--0--0--0--|------0--0--0-----0--0--0--|
PM PM PM PM PM PM PM PM PM PM PM PM ----------------------------------|----------------------------------|----------------------------------|----------------------------------| --10--10--10--10--10--10--10--10--|--10--14--14--14--14--14--14--14--|---x---x---x---x---x---x---x---x--|---x---x---x---x---x---x---x---x--|---8---8---8---8---8---8---8---8--|---8--12--12--12--12--12--12--12--|----------------------------------|----------------------------------|
Verse 2--------------------------|--------------------------|--------------------------|--------------------------|--------------------------|--------------------------|--------------------------|--------------------------|--0--0--0-----0-----0--0--|--0-----0-----0--5--------|--0--0--0--5--0--7--0--0--|--0--8--0--7--0-----8--5--|
PM PM PM PM PM PM PM PM --------------------------|--------------------------|--------------------------|--------------------------| X3--------------------------|--------------------------|--------------------------|--------------------------|-----0--0-----0-----0--0--|--------------------------|--7--0--0--5--0--7--0--0--|--0--1--1--1--0--4--1--1--|
Breakdown-------------------------|--------------------------|-------------------------|--------------------------|-------------------------|--------------------------|-------------------------|--------------------------|--0--0--0-----0----------|-----8-----7-----5--------|--0--0--0--5--0--7-------|-----8-----7--------8--5--|
PM PM PM --------------------------|--------------------------|--------------------------|--------------------------|--------------------------|--------------------------|--------------------------|--------------------------|-----0--0-----0-----0--0--|--------------------------|--7--0--0--5--0--7--0--0--|--0--1--1--1--0--4--1--1--| PM PM PM PM PM
Chorus
------------------------------|------------------------------|------------------------------|------------------------------| X2------------------------------|------------------------------|------------------------------|------------------------------|--10--10----10--10--10----10--|--10--10----10--10--10----10--|--10--10----10--10--10----10--|--10--10----10--10--10----10--|
------------------------|------------------------|------------------------|------------------------| X2------------------------|------------------------|------------------------|------------------------|--8--8----8--8--8----8--|--8--8----8--8--8----8--|--8--8----8--8--8----8--|--8--8----8--8--8----8--|
------------------------------|------------------------------|------------------------------|------------------------------| X2------------------------------|------------------------------|------------------------------|------------------------------|--10--10----10--10--10----10--|--10--10----10--10--10----10--|--10--10----10--10--10----10--|--10--10----10--10--10----10--|
----------------------------------|----------------------------------|----------------------------------|----------------------------------|--10--10--10--10--10--10--10--10--|--10--10--10--10--10--10--10--10--|---x---x---x---x---x---x---x---x--|---x---x---x---x---x---x---x---x--|---8---8---8---8---8---8---8---8--|---8---8---8---8---8---8---8---8--|----------------------------------|----------------------------------|
------------------------------|------------------------------|--9---------------------------|--x---------------------------|--7---------0--0--0--0--8\----|------------0--0--0--0--8\----| PM PM PM PM
Breakdown-------------------------|-----------------------|-------------------------|-----------------------|-------------------------|-----------------------|-------------------------|-----------------------|--0----------------------|-----------------------|--0----------------------|-----------------------|
-------------------------|---------------------------------|-------------------------|---------------------------------|-------------------------|---------------------------------|-------------------------|---------------------------------|-------------------------|-----0-0--8--0-0--10--11--10--4--|-------------------------|-----0-0--8--0-0--10--11--10--4--|
PMPM PMPM -------------------------|-----------------------|-------------------------|-----------------------|-------------------------|-----------------------|-------------------------|-----------------------|--0----------------------|-----------------------|--0----------------------|-----------------------|
PM ----------------------0--|-----------------------|----------------------0--|-----------------------|----------------------0--|-----------------------|----------------------0--|-----------------------|----------------0--0--0--|--------------0--8\----|----------------0--0-----|--------------0--8\----| PM PM PM
--------------------------|--------------------------|--------------------------|--------------------------|--------------------------|--------------------------|--------------------------|--------------------------|--3--0--0--0--0--1--0--0--|--0--0--0--0--1--0--3--4--|--3--0--0--0--0--1--0--0--|--0--0--0--0--1--0--3--4--|
PM PM PM PM PM PM PM --------------------------|---------------------------------|--------------------------|---------------------------------|--------------------------|---------------------------------|--------------------------|---------------------------------|--3--0--0--0--0--1--0--0--|--0--0-0--8--0-0--10--11--10--4--|--3--0--0--0--0--1--0--0--|--0--0-0--8--0-0--10--11--10--4--|
PM PM PM PMPM PMPM --------------------------|--------------------------|--------------------------|--------------------------|--------------------------|--------------------------|--------------------------|--------------------------|--3--0--0--0--0--1--0--0--|--0--0--0--0--1--0--3--4--|--3--0--0--0--0--1--0--0--|--0--0--0--0--1--0--3--4--|
PM PM PM PM PM PM PM --------------------------|-----------------------|--------------------------|-----------------------|--------------------------|-----------------------|--------------------------|-----------------------|--3--0--0--0--0--1--0--0--|--------------0--8\----|--3--0--0--0--0--1--0--0--|--------------0--8\----| PM PM PM
--------------------------|--------------------------|--------------------------|--------------------------|--------------------------|--------------------------|--------------------------|--------------------------|--3--0--0--0--0--1--0--0--|--0--0--0--0--1--0--3--4--|--3--0--0--0--0--1--0--0--|--0--0--0--0--1--0--3--4--|
PM PM PM PM PM PM PM --------------------------|---------------------------------|--------------------------|---------------------------------|--------------------------|---------------------------------|--------------------------|---------------------------------|--3--0--0--0--0--1--0--0--|--0--0-0--8--0-0--10--11--10--4--|--3--0--0--0--0--1--0--0--|--0--0-0--8--0-0--10--11--10--4--|
PM PM PM PMPM PMPM --------------------------|--------------------------|--------------------------|--------------------------|--------------------------|--------------------------|--------------------------|--------------------------|--3--0--0--0--0--1--0--0--|--0--0--0--0--1--0--3--4--|--3--0--0--0--0--1--0--0--|--0--0--0--0--1--0--3--4--|
PM PM PM PM PM PM PM -------------------------|---------------------------|-------------------------|---------------------------|----------------------8--|---------------------------|----------------------6--|---------------------------|--3--0--0-------1--0--6--|---------------------------|--3--0--0-------1--0--6--|---------------------------|
Tablature Legend ---------------- PM - palm mute b - bend L - tied note x - dead note g - grace note (n) - ghost note > - accentuded note PH - pitch harmonic h - hammer on p - pull off s - slide
Please rate this tab:
x1.0