The Holly Springs Disaster - Say It Again Maybe Itll Happen tab

I've notice that no one has ever tabbed out this song, kind of an older song..
so I'm sitting at my computer right now, and am going to figure it out for everyone
 who knows it and wants to learn it. so i doubt it'll be perfect  ha

Tuning: DADGBe (thats right lol, standard drop d, not common for holly springs)

guitar 1 = (top)
guitar 2 = (bottom)


|---||---||---||-0-||-0-||-0-|
|---||-3-||-6-||---||---||---|
..singing startsguitar 1|--------------------------| |---------------||--------------------------| |---------------||--------------------------| |---------------||-0-0--0-0--0-0------------| |-0---0---0---0-||-0-0--0-0--0-0------------| |-0---0---0---0-||-0-0--0-0--0-0------------| |-0---0---0---0-|
guitar 2 X4 |--------------------------| |---------------||-3-3--3-3--3-3--3-3--3--3-| |-3---3---3---3-||-6-6--6-6--6-6--6-6--6--6-| |-6---6---6---6-||--------------------------| |---------------||--------------------------| |---------------||--------------------------| |---------------|
(both guitars play same lines below)
..and gather the children|----------------------------------------------------||----------------------------------------------------||----------------------------------------------------||-4-4--7-7--0-0--------0--------0--------0-----------||-4-4--7-7--0-0--------0--------0--------0-----------||-4-4--7-7--0-0--------0--------0--------0-----------|
|------------------------------------------------||------------------------------------------------||------------------------------------------------||-4-4--7-7--0-0----------------------------------||-4-4--7-7--0-0---0-0000-0---0-0000-0---0-0000-0-||-4-4--7-7--0-0---0-0000-0---0-0000-0---0-0000-0-| . .... . . .... . . .... .
guitar 1|--------------------||--------------------||--------------------||--------------------||-0-0000-0-----------||-0-0000-0-----------|
. .... .guitar 2|--------------------||--------------------||--------------------||--------------------||-----------0-0000-0-||-----------0-0000-0-|
. .... . ..oh my god!!|---------------| |--------||---------------| |--------||---------------| |--------||---------------| |--------||-0-0--0-0--0-0-| |-0-0000-||-0-0--0-0--0-0-| |-0-0000-|
X4 . ....|---------------| |--------||-5-5--5-5--5-5-| |--------||-8-8--8-8--8-8-| |--------||---------------| |--------||---------------| |-0-0000-||---------------| |-0-0000-| . ....
..so gather the children|-------------------------------|-----------------------------||-------------------------------|-----------------------------||-------------------------------|-----------------------------||-4-4--7-7--0-0----------0------|-----0----------0------------||-4-4--7-7--0-0----------0------|-----0----------0------------||-4-4--7-7--0-0----------0------|-----0----------0------------|
|---------7-----7------5-------|-----7-----5-----7---5---5-||-----5-----5------5-----5---5-|-5-----5-----5---------5---||-3/6---6-----6------6-----6---|---6-----6-----6-----------||------------------------------|---------------------------||------------------------------|---------------------------||------------------------------|---------------------------|
|------------------------------------------------------------||------------------------------------------------------------||------------------------------------------------------------||-4-4--7-7--0-0----------------------------------------------||-4-4--7-7--0-0--------0-0000-0---0-0000-0---0-0000-0--------||-4-4--7-7--0-0--------0-0000-0---0-0000-0---0-0000-0--------|
. .... . . .... . . .... .|---------7-----7-----5--------|---5/12---------------5----||-----5-----5-----5------------|-7------------------5------||-3/6---6-----6-----6----------|-----------------6---------||------------------------------|---------------------------||------------------------------|---------------------------||------------------------------|---------------------------|
...the sky-scrapers will fall!|---------------||---------------||---------------||-0-0--0-0--0-0-||-0-0--0-0--0-0-||-0-0--0-0--0-0-|
X4|---------------||-5-5--5-5--5-5-||-8-8--8-8--8-8-||---------------||---------------||---------------|
(both guitars play next line)..well they will FAALL!!|---------------||---------------||---------------||---------------||-0-0--0-0--0-0-||-0-0--0-0--0-0-| . . . . . .
|--------------||--------------||--------------||--------------||--------0-0---||-12/0---0-0---|
. .|--------------||--------------||--------------||--------------||--------0-0---||--------0-0---| . .
FEEDBACK.... THEN..
|---------7-----7-----5-|---5/12--------------5--||-----5-----5-----5-----|-7-----------------5----||-3/6---6-----6-----6---|-----------------6------||-----------------------|------------------------||-----------------------|------------------------||-----------------------|------------------------|
..and gather the children|---------7-----7------5-------|-----7-----5-----7---5---5-||-----5-----5------5-----5---5-|-5-----5-----5---------5---||-3/6---6-----6------6-----6---|---6-----6-----6-----------||------------------------------|---------------------------||------------------------------|---------------------------||------------------------------|---------------------------|
|---------7-----7-----5----|---5/12--------------5--||-----5-----5-----5--------|-7-----------------5----||-3/6---6-----6-----6------|-----------------6------||--------------------------|------------------------||--------------------------|------------------------||--------------------------|------------------------|
..and gather the children|---------7-----7------5-------|-----7-----5-----7---5---5-||-----5-----5------5-----5---5-|-5-----5-----5---------5---||-3/6---6-----6------6-----6---|---6-----6-----6-----------||------------------------------|---------------------------||------------------------------|---------------------------||------------------------------|---------------------------|
|---------7-----7-----5----|---5/12--------------5--||-----5-----5-----5--------|-7-----------------5----||-3/6---6-----6-----6------|-----------------6------||--------------------------|------------------------||--------------------------|------------------------||--------------------------|------------------------|
Tap to rate this tab
 
# A B C D E F G H I J K L M N O P Q R S T U V W X Y Z