The Honorary Title - Disengage tab

tabbed by: alanc456@aol.com
Band: The Honorary Title
Song: Disengage


Key:

D - downstroke
U - upstroke
h - hammer on
p - pull off
/ - slide



Intro 

|----3----------------3------------||----3----------------3------------||----0----------0-----0------------||----0----------------0------------||----2--0-h2-2h3------2--3-2-0h2p0-||--3-3-3------------3-3-3----------|
|----3----------------3-------------||----3----------------3-------------||----0----------0-----0-------------||----0----------------0-2/4-2-0h2p0-||----2--0-h2-2h3------2-------------||--3-3-3------------3-3-------------|
Verse DUD DUD DUD DUD
|----3----------------3333-----3333-----3333-----3333-----3333---0--||----0----------------3333-----3333-----3333-----3333-----3333---0--||----0----------0-----0000-----0000-----0000-----0000-----0000---0--||----0----------------0000-----2222-----0000-----2222-----0000---2--| etc.|----2--0-h2-2h3------2222-0-3-3333-0---2222-0-3-3333-0---2222---2--||--3-3-3------------3-3333------------3-3333------------3-3333-0-0--|
G Cadd9 G Em So you regret the last five years of your life with me. . Am C G Don't you think that I feel the same way too. Am C G Don't you think that I feel the same way too.
|----3----------------3------------||----3----------------3------------||----0----------0-----0------------||----0----------------0------------||----2--0-h2-2h3------2--3-2-0h2p0-||--3-3-3------------3-3-3----------|
Verse : Just G and Cadd9 Disengage your eyes At least one moment in time And soon you will know Trace the lines on my face Until you are underneath It all starts real slow Walking sleepless through these streets I don't understand a thing you mean This relationship is based on what trails across the CD case And it will all soon come to an end Em Am C But if you don't pick up the phone, you will regret it
|--------------||--------------||--------------||--------------||-----3-2-0----||----------3---|
Em Am C I've said it before, but this time I mean it CHORUS G D Em C G D You, you keep telling me that you regret Em C All the things that we G D Em C have tortured you, that I'm willing to admit G D Guilt-ridden for those years Em C Trying to forget, then. .
|----3----------------3------------||----3----------------3------------||----0----------0-----0------------||----0----------------0------------||----2--0-h2-2h3------2--3-2-0h2p0-||--3-3-3------------3-3-3----------|
from now on. . .
|----3----------------3-------------||----3----------------3-------------||----0----------0-----0-------------||----0----------------0-2/4-2-0h2p0-||----2--0-h2-2h3------2-------------||--3-3-3------------3-3-------------|
from now on. . . Second verse verse
|----3----------------3------------||----3----------------3------------||----0----------0-----0------------||----0----------------0------------||----2--0-h2-2h3------2--3-2-0h2p0-||--3-3-3------------3-3-3----------|
I met her at a show Her dress was stained and her eyes had a glow There were no lines to trace on her face But I will make my way underneath I'll just start real slow CHORUS Em Am C But if you don't pick up the phone, you will regret it (then right after C play this)
|--------------||--------------||--------------||--------------||-----3-2-0----||----------3---|
Em Am C I've said it before, but this time I mean it G D Em C G D You, you keep telling me that you regret Em C All the things that we've done G D Em C I've tortured you, that I'm willing to admit G D Guilt-ridden for those years Em C Trying to forget, (then)
|----3----------------3------------||----3----------------3------------||----0----------0-----0------------||----0----------------0------------||----2--0-h2-2h3------2--3-2-0h2p0-||--3-3-3------------3-3-3----------|
from now on. . .
|----3----------------3-------------||----3----------------3-------------||----0----------0-----0-------------||----0----------------0-2/4-2-0h2p0-||----2--0-h2-2h3------2-------------||--3-3-3------------3-3-------------|
from now on. . . BRIDGE Am C G From now on, From now on Am C G I've said it before and this time I, I mean it Am C G Cause if you don't pick up the phone you will regret it Am C G I wanna die, I wanna die, with you.
Tap to rate this tab
 
# A B C D E F G H I J K L M N O P Q R S T U V W X Y Z