The Human Abstract - Elegiac tab version 2

| Acoustic Guitar|---3----3-----3----2--------|---2h58--8-----7-----------------||----------------------------|----------------------------------||----------------------------|----------------------------------||----------------------------|----------------------------------||----------------------------|----------------------------------||----------------------------|----------------------------------|
|------7---------------------|---3----3-3---2-------------------||----7---7--10---8-----------|----------------------------------||----------------------------|----------------------------------||----------------------------|----------------------------------||----------------------------|----------------------------------||----------------------------|----------------------------------|
|--2h5--8-8---7--------------|---7----7---7---------------------||----------------------------|----------------------------------||----------------------------|----------------------------------||----------------------------|----------------------------------||----------------------------|--------------------7h8p7p5-------||----------------------------|----------------------------------|
|----7--------7------10------|--7---10---7----5-----------------||----------------------------|----------------------------------||----------------------------|----------------------------------||----------------------------|----------------------------------||----------------------------|----------------------------------||----------------------------|----------------------------------|
|----5--7--8--5---7---5--7---|---8------------------------------||----------------------------|----------------------------------||----------------------------|----------------------------------||----------------------------|----------------------------------||----------------------------|----------------------------------||----------------------------|----------------------------------|
|------7---------------------|---3---5----12-12--8-----7--------||----7---7---10------8-------|----------------------------------||----------------------------|----------------------------------||----------------------------|----------------------------------||----------------------------|----------------------------------||----------------------------|----------------------------------|
|---8-8-7-------------7------|----------------------------------||---------10-8-7-8-10--------|---8------------------------------||----------------------------|----------------------------------||----------------------------|----------------------------------||----------------------------|----------------------------------||----------------------------|----------------------------------|
|----------8---7-------------|-----7----------------------------||-8h10p8p7-------------------|---7---7--10--8--7--8-------------||----------------------------|-----------------------9----------||----------------------------|----------------------------------||----------------------------|----------------------------------||----------------------------|----------------------------------|
Electric Guitar|-7h5--------5--7------------|--20-20--19-----------------------||-----8-7-8------------------|----------------------------------||----------------------------|----------------------------------||----------------------------|----------------------------------||----------------------------|----------------------------------||----------------------------|----------------------------------|
|--------17--20-20-----------|--19------------------------------||----19----------------------|----------------------------------||----------------------------|----------------------------------||----------------------------|----------------------------------||----------------------------|----------------------------------||----------------------------|----------------------------------|
|------19-----17-------------|--15------------------------------||---19----19-----------------|----------------------------------||----------------------------|----------------------------------||----------------------------|----------------------------------||----------------------------|----------------------------------||----------------------------|----------------------------------|
|---15-----15---15-----------|--14------------------------------||----------------------------|----------------------------------||----------------------------|----------------------------------||----------------------------|----------------------------------||----------------------------|----------------------------------||----------------------------|----------------------------------|
|------17--20--20------------|--19------------------------------||--19------------------------|----------------------------------||----------------------------|----------------------------------||----------------------------|----------------------------------||----------------------------|----------------------------------||----------------------------|----------------------------------|
|--19------19-19----19-------|--19--22--20---17-----------------||----------------------------|----------------------------------||----------------------------|----------------------------------||----------------------------|----------------------------------||----------------------------|----------------------------------||----------------------------|----------------------------------|
|-17--19---20----17----------|----20-----------19---------------||----------------------------|----------------------------------||----------------------------|----------------------------------||----------------------------|----------------------------------||----------------------------|----------------------------------||----------------------------|----------------------------------|
|-----19--------17-----------|---15-----------------------------||-19------19-----------------|----------------------------------||----------------------------|----------------------------------||----------------------------|----------------------------------||----------------------------|----------------------------------||----------------------------|----------------------------------|
|--15---19----24-24----------|--22-------------18---------------||----------------------------|----------------------------------||----------------------------|----------------------------------||----------------------------|----------------------------------||----------------------------|----------------------------------||----------------------------|----------------------------------|
|--20--20--19--17--15--14--15|--17-----1915--------------------||----------------------------|----------------------------------||----------------------------|----------------------------------||----------------------------|----------------------------------||----------------------------|----------------------------------||----------------------------|----------------------------------|
|--15h17p15p14---20----------|--19------------------------------||----------------------------|----------------------------------||----------------------------|----------------------------------||----------------------------|----------------------------------||----------------------------|----------------------------------||----------------------------|----------------------------------|
|-----19----17--1514h15-----|---12-----------------------------||--19----19------------------|----------------------------------||----------------------------|----------------------------------||----------------------------|----------------------------------||----------------------------|----------------------------------||----------------------------|----------------------------------|
| Acoustic Guitar (Again)|---3----3-----3----2--------|---2h58--8-----7-----------------||----------------------------|----------------------------------||----------------------------|----------------------------------||----------------------------|----------------------------------||----------------------------|----------------------------------||----------------------------|----------------------------------|
|------7---------------------|----------------------------------||----7---7--10---8--7--8-----|---5------------------------------||----------------------------|----------------------------------||----------------------------|----------------------------------||----------------------------|----------------------------------||----------------------------|----------------------------------|
Tap to rate this tab
 
# A B C D E F G H I J K L M N O P Q R S T U V W X Y Z