The Jonbenet - Behold The White Whore tab

----------------------------------------------------
~  let ring                  /
/  slide up                 /
\  slide down              /
t  tremelo                /
.  palm mute             /
-------------------------


|-----------------------------------------------------||-----------------------------------------------------||-----------------------------------------------------||----------7-5----------7------------7-0--------------||--------7------------7---5--------7--------------0t--||-/7-7-7-------/7-7-7-------/7-7-7-------/7-7-7-0-0t-0|
|-----------------------------------------------------||-----------------------------------------------------||-----------------------------------------------------||----------7-5----------7------------7-0--------------||--------7------------7---5--------7------------------||-/7-7-7-------/7-7-7-------/7-7-7-------/7-7-7-0-0x-0|
|-------------------------------------------------------------||-------------------------------------------------------------||-------------------------------------------------------------||----------7-5----------7------------7-0----------------------||--------7------------7---5--------7------------7-6-5~--5~-3~/||-/7-7-7-------/7-7-7-------/7-7-7-------/7-7-7-7-6-5~--5~-3~/|
|---------------------9-9-----9-9-||---------------------------------||-----8---------8-----------------||-------8-----8-------------------||-6-6-----6-6-----7-7-----7-7-----||-6-6-----6-6-----7-7-----7-7-----| . . . . . . . .
|---------------------------------||---------------------8-8---------||-----8---------8-----------------||-------8-----8-------------------||-6-6-----6-6-----7-7-----/9-9-8-7||-6-6-----6-6-----7-7-----/9-9-8-7| . . . . . .
|---------------------9-9-----9---||-------------------------------10||-----8---------8-----------------||-------8-----8-------------------||-6-6-----6-6-----7-7-----7-7-----||-6-6-----6-6-----7-7-----7-7-----| . . . . . . . .
|---------------------------------||---------------------8-8---------||-----8---------8-----------------||-------8-----8-------------------||-6-6-----6-6-----7-7-----/9-9-8-7||-6-6-----6-6-----7-7-----/9-9-8-7| . . . . . .
|---------------------9-9-----9-9-||---------------------------------||-----8---------8-----------------||-------8-----8-------------------||-6-6-----6-6-----7-7-----7-7-----||-6-6-----6-6-----7-7-----7-7-----| . . . . . . . .
|---------------------------------||---------------------8-8---------||-----8---------8-----------------||-------8-----8-------------------||-6-6-----6-6-----7-7-----/9-9-8-7||-6-6-----6-6-----7-7-----/9-9-8-7| . . . . . .
|---------------------9-9-----9---||-------------------------------10||-----8---------8-----------------||-------8-----8-------------------||-6-6-----6-6-----7-7-----7-7-----||-6-6-----6-6-----7-7-----7-7-----| . . . . . . . .
|---------------------------------||---------------------8-8---------||-----8---------8-----------------||-------8-----8-------------------||-6-6-----6-6-----7-7-----/9-9-8-7||-6-6-----6-6-----7-7-----/9-9-8-7| . . . . . .
|-------7---------------------------------------------------------||-4-6/8---8-6-8---8-6-8-9-8-6-8---6-4-6/8\6-6-4-6---4-2-4---------||---------------5---------------4-----------------3-------4-2---2-||-------------------------------------------------------------4---||-----------------------------------------------------------------||-----------------------------------------------------------------|
|-------7--------------------------------------------------------||-4-6/8---8-6-8---8-6-8--8-9-8---6-4-6/8\6-6-4-6---4-2-4---------||---------------5---------------4-----------------3-------4-2---2||-------------------------------------------------------------4--||----------------------------------------------------------------||----------------------------------------------------------------|
|-----------------------------------------------------------------------||-----------------------------------------------------------------------||--------8------8----------12---------12------10------10------7---------||-----------------------------------------------------------------------| 2x|-6-6-6---6-6-6---10-10-10---10-10-10---8-8-8---8-8-8---5-5-5---5-5-3-5-||-6-6-6---6-6-6---10-10-10---10-10-10---8-8-8---8-8-8---5-5-5---5-5-3-5-| . . . . . . . . . . . . . . . . . . . . . . . . .
( ) not played 2nd time, filled with rest|-------------------------||-----12-8-12------8-12-8-||-------------------------||-------------------------| 2x|-5~----------7~----------||-5~----------7~----------|
|---------------------9-9-----9-9-||---------------------------------||-----8---------8-----------------||-------8-----8-------------------||-6-6-----6-6-----7-7-----7-7-----||-6-6-----6-6-----7-7-----7-7-----| . . . . . . . .
|---------------------------------||---------------------8-8---------||-----8---------8-----------------||-------8-----8-------------------||-6-6-----6-6-----7-7-----/9-9-8-7||-6-6-----6-6-----7-7-----/9-9-8-7| . . . . . .
|---------------------9-9-----9---||-------------------------------10||-----8---------8-----------------||-------8-----8-------------------||-6-6-----6-6-----7-7-----7-7-----||-6-6-----6-6-----7-7-----7-7-----| . . . . . . . .
|---------------------------------||---------------------8-8---------||-----8---------8-----------------||-------8-----8-------------------||-6-6-----6-6-----7-7-----/9-9-8-7||-6-6-----6-6-----7-7-----/9-9-8-7| . . . . . .
|---------------------9-9-----9-9-||---------------------------------||-----8---------8-----------------||-------8-----8-------------------||-6-6-----6-6-----7-7-----7-7-----||-6-6-----6-6-----7-7-----7-7-----| . . . . . . . .
|---------------------------------||---------------------8-8---------||-----8---------8-----------------||-------8-----8-------------------||-6-6-----6-6-----7-7-----/9-9-8-7||-6-6-----6-6-----7-7-----/9-9-8-7| . . . . . .
|---------------------9-9-----9---||-------------------------------10||-----8---------8-----------------||-------8-----8-------------------||-6-6-----6-6-----7-7-----7-7-----||-6-6-----6-6-----7-7-----7-7-----| . . . . . . . .
|---------------------------------||---------------------8-8---------||-----8---------8-----------------||-------8-----8-------------------||-6-6-----6-6-----7-7-----/9-9-8-7||-6-6-----6-6-----7-7-----/9-9-8-7| . . . . . .
|-------7---------------------------------------------------------||-4-6/8---8-6-8---8-6-8-9-8-6-8---6-4-6/8\6-6-4-6---4-2-4---------||---------------5---------------4-----------------3-------4-2---2-||-------------------------------------------------------------4---||-----------------------------------------------------------------||-----------------------------------------------------------------|
|-------7--------------------------------------------------------||-4-6/8---8-6-8---8-6-8--8-9-8---6-4-6/8\6-6-4-6---4-2-4---------||---------------5---------------4-----------------3-------4-2---2||-------------------------------------------------------------4--||----------------------------------------------------------------||----------------------------------------------------------------|
|-----------------------------------------------------------------------||-----------------------------------------------------------------------||-----------------------------------------------------------------------||-----------------------------------------------------------------------| 2x|-6-6-6---6-6-6---10-10-10---10-10-10---8-8-8---8-8-8---5-5-5---5-5-3-5-||-6-6-6---6-6-6---10-10-10---10-10-10---8-8-8---8-8-8---5-5-5---5-5-3-5-| . . . . . . . . . . . . . . . . . . . . . . . . .
|--------------------------------------------||--------------------------------------------||-------17-------17-------15-------15--------||-------15-------15-------13-------13--------||-3-4-5----6-7-6----6-7-5----6-7-5----6-7-4~-||-3-4-5----6-7-6----6-7-5----6-7-5----6-7-4~-|
|------------------------------------||-8~-12-10------10-8----12-10------8-||----------9-12------9~-------8-12---||------------------------------------||------------------------------------||------------------------------------|
|---------------------------------||-8~-12-10------10-8----12~-12~12-||----------9-12------9~-12~-12~12-||---------------------------------||---------------------------------||---------------------------------|
This isn't ALL of it but theres just another soft little part that follows the lines of rest of the song so you can pretty much just play it by looking through this, and then the breakdown at the end which is just one of those bars towards the end you'll know one when you listen to the song. I am for sure about this tab that it is correct and I there is another one on here of this song but I tried it and realized that most of it wrong which is why I made this but a big thanks to the person who made that because it GREATLY as a guideline for this because otherwise I'd never be able to tab this song. it works for ya, and enjoy.
Tap to rate this tab
 
# A B C D E F G H I J K L M N O P Q R S T U V W X Y Z