The Killing Tree - Replace My Heart tab

Replace My Heart
Artist: The Killing Tree
Tabbed by: Rightclicked

Tuning: Half step down, drop D

I'm sorry I'm not going too in-depth with the detail, such as how many 
times a certain part is played, but if you listen to the song (I know, 
cliché for an U-G tab to say that), you should be able to figure out 
how many times to play a certain part.

This tab is also a lot of the same parts over and over, but that's just 
because the song is a bit repetitive in what it plays. If you think 
this tab sucks in terms of chronological order, then really, I don't 
blame you.

+ = pinch harmonic (just to be clear)

Okay, so, this first part seems a little rough, but I tried my best in 
figuring out the first part.


Intro (clean guitar): This part's really confusing, but get the feel 
for the notes and it'll get easier:

|--------5--5------5-----5----5---5-5----5------5-------5----||----3-3---3--3-3-3-3-3-3--3-6-6--------------------------6--||--------------------------------3-3-3-3-3-3-3-3-3--3--5-----||------------------------------------------------------------||------------------------------------------------------------||------------------------------------------------------------|
Intro (distortion): Second time:|------------------------------------|---------||------------------------------------|---------||-------5-----------5-----------8+---|---------||-0-6-3-5-----------5--3-5-6---------|--0~-----||-0-6-3-3-----------3--3-5-6---------|--0~-----||-0-6-3---0-0-1-1-0----3-5-6---------|--0~-----|
Verse:|-----------------------------||-----------------------------||-----10-10-10-10-10-5-7-8----||-----x--x--x--x--x--x-x-x----||-----8--8--8--8--8--3-5-6----| |-000-------------------------|
Play these 2 parts twice...|------------------------------||------------------------------||------10-10-10-10-10-5-7-8----||-6666-x--x--x--x--x--x-x-x----||-6666-8--8--8--8--8--3-5-6----||-6666-------------------------|
After second time, play:
|-----------------||-----------------||-----------------||-6-3-5-6-5-0-----||-6-3-5-6-5-0-----||-6-3-5-6-5-0-----|
|--------------||--------------||-------11-----||--------------||--------------||-00-0000------| ** ****
Pre-Chorus (This is really the notes to the intro)
|--------5--5------5-----5----5---5-5----5------5-------5----||----3-3---3--3-3-3-3-3-3--3-6-6--------------------------6--||--------------------------------3-3-3-3-3-3-3-3-3--3--5-----||------------------------------------------------------------||------------------------------------------------------------||------------------------------------------------------------|
|--------------------||--------------------||--------------------||--6666666-3-5-6-0---||--6666666-3-5-6-0---||--6666666-3-5-6-0---|
|-------------------------------||-------------------------------||-------------------------------||-------------------------------||-------------------------------||-0-0-0-0-0-0-3-3-6-6-6-6-3-3---|
|--------------||--------------||-------11-----| Repeat a bunch of times ( sorry! D: )|--------------||--------------||-00-0000------| ** ****
Chorus:|------------------------| |------------------||------------------------| |------------------||----------------333>----| |--10-9----9-------||--00000000-3333-333>----| |-------10----12---||--00000000-3333-111>----| |------------------||--00000000-3333---------| |------------------|
|--------------------||--------------------||--------------------||--6666666-3-5-6-0---||--6666666-3-5-6-0---||--6666666-3-5-6-0---|
Verse:|-----------------------------||-----------------------------||-----10-10-10-10-10-5-7-8----||-----x--x--x--x--x--x-x-x----||-----8--8--8--8--8--3-5-6----| |-000-------------------------|
Play these 2 parts twice|------------------------------||------------------------------||------10-10-10-10-10-5-7-8----||-6666-x--x--x--x--x--x-x-x----||-6666-8--8--8--8--8--3-5-6----||-6666-------------------------|
After second time, play:
|-----------------||-----------------||-----------------||-6-3-5-6-5-0-----||-6-3-5-6-5-0-----||-6-3-5-6-5-0-----|
I'm gonna skip repeating this shit and go right to the outro.
|--------------------------||--------------------------||--------------------------||-0000---------------------||-0000---------------6b----||-0000-0-1-0-6-5-1-0-------| ****
Anyway, there you have it. That's the song, and I did my best to put it in order and do the right notes. Hopefully it helps.
Tap to rate this tab
 
# A B C D E F G H I J K L M N O P Q R S T U V W X Y Z