The Number 12 Looks Like You – Civeta Dei tab

Artist/Band - The Number 12 Looks Like You
Album - Put On Your Rosy Red Glasses
Song - Civeta Dei


Tuning: Standard (E A D G B E)

Info:
I literally copied this from the powertab version and put it
into normal tab format so that those who don't have the software
to use powertab can see the tab and learn the song too.
Enjoy!


IntroQ=71N.C.4/4Gtr I|--------8-------|---------(8)---------------------------||----------6-----|-----------------(6)-------------------||------------7---|---------------------(7)---------------||--------------7-|---------------------------------------||----------------|-5-------(5)-----(5)-(5)---------------||----------------|---------------------------------------|
|
| Gtr II|----------------|-0--------0-----------0--------0-------||----------------|---6---6-----6----6------6---6---6---6-||----------------|-----5---------5-----------5-------5---||----------------|---------------------------------------||----------------|---------------------------------------||----------------|---------------------------------------|
|-10-------------------------------------------||--------10------------------------------------||-----------9b10==(9)r-(9)---(9)---------------||----------------------------------------------||----------------------------------------------||----------------------------------------------|
|
|--0--------0-----------------0--------0-------||----6----6--------6-------6-----6---6---6---6-||------5----------------5----------5-------5---||----------------------------------------------||----------------------------------------------||----------------------------------------------|
|-8-------------------------------------------||-------10------------------------------------||----------9b10==(9)r-(9)---(9)---------------||---------------------------------------------||---------------------------------------------||---------------------------------------------|
|
|-0--------0-----------------0--------0-------||---6----6--------6-------6-----6---6---6---6-||-----5----------------5----------5-------5---||---------------------------------------------||---------------------------------------------||---------------------------------------------|
7/8 3/4|-10-------------------------||--------5-----------------||----10----------------------||o---------6-------6h8p6---||-------9b10==(9)r-(9)-------||------7-----7-----------5-||----------------------------||----7-----------7---------||----------------------------||o-5-----------5-----------||----------------------------||--------------------------|
|
|--0---------------------(0)-||--------5-----------------||--6---------------------(6)-||o---------6-------6h8p6---||----------------------------||------7-----7-----------5-||----------------------------||----7-----------7---------||----------------------------||o-5-----------5-----------||----------------------------||--------------------------|
2/4|-------8------------------||----------|--------||---------6-----------5---o||----------|--------||-----7-----7-----5h7---7--||-(7)------|-(7)----||---7-----------7----------||----------|--------||-5-----------5-----------o||----------|--------||--------------------------||----------|--------|
|
|-------8------------------||----------|--------||---------6-----------5---o||----------|--------||-----7-----7-----5h7---7--||-(7)------|-(7)----||---7-----------7----------||----------|--------||-5-----------5-----------o||----------|--------||--------------------------||----------|--------|
Q=125DmD5 DmD5 DmD5 F D5Em DmD5 DmD5 DmD5 F D5Em4/4Gtr IIIPM| PM| PM| PM PM| PM| PM| PM|-------------|---------------|-------------|---------------|||-------------|---------------|-------------|---------------|||-7-----7-----|-7-----10---9--|-7-----7-----|-7-----10---9--|||-7-----7-----|-7------7---5--|-7-----7-----|-7------7---5--|||-8-0-0-8-0-0-|-8-0-0--8-0-7--|-8-0-0-8-0-0-|-8-0-0--8-0-7--|||---0-0---0-0-|---0-0----0----|---0-0---0-0-|---0-0----0----||
|
| Gtr IV| PM| PM| PM| PM PM| PM| PM| PM|-------------|---------------|-------------|---------------|||-------------|---------------|-------------|---------------|||-7-----7-----|-7-----10---9--|-7-----7-----|-7-----10---9--|||-7-----7-----|-7------7---5--|-7-----7-----|-7------7---5--|||-8-0-0-8-0-0-|-8-0-0--8-0-7--|-8-0-0-8-0-0-|-8-0-0--8-0-7--|||---0-0---0-0-|---0-0----0----|---0-0---0-0-|---0-0----0----||
"Pick up this doll..."Q=210D|-----------------|------------------||-----------------|------------------||-----------------|------------------||-------8-7---7-8-|-10-8-7-8-7---7---||-5-8-5-----8-----|------------8---8-||-----------------|------------------|
|
|-----------------|------------------||-----------------|------------------||-7-7-7-7-7-7-7-7-|--7-7-7-7-7-7-7-7-||-x-x-x-x-x-x-x-x-|--x-x-x-x-x-x-x-x-||-5-5-5-5-5-5-5-5-|--5-5-5-5-5-5-5-5-||-----------------|------------------|
F|-------------------------|-------------------------||-------------------------|-------------------------||-----------7--5-----7--5-|-----7--5-----7--5-------||-----------------8-------|--8--------8--------8----||--7--8--8----------------|-------------------------||-------------------------|-------------------------|
|
|-------------------------|-------------------------||-------------------------|-------------------------||-10-10-10-10-10-10-10-10-|-10-10-10-10-10-10-10-10-||--x--x--x--x--x--x--x--x-|--x--x--x--x--x--x--x--x-||--8--8--8--8--8--8--8--8-|--8--8--8--8--8--8--8--8-||-------------------------|-------------------------|
Bb5 APM----| PM--||------------------|-------------------|-------------------|------------------||------------------|-------------------|-------------------|------------------||------------------|-------------------|-------10-----10---|---10-----10------||---------10p0-7h8p|=7---7p0-3-0-2b3r==|==========8p7----8p|=7----8p7----8p7--||---5-7-8----------|---8---------------|-------------------|------------------||-8----------------|-------------------|-7-7-7-------------|------------------|
|
| PM| PM| PM--| PM| PM PM TP TP|------------------|-------------------|-------------------|------------------||------------------|-------------------|-------------------|------------------||------------------|-------------------|-------------------|------------------||-8-----8------8---|---8-----8---8-----|-------------------|------------------||-8-8-8-8--8-8-8-8-|-8-8-8-8-8-8-8---8-|-------------------|------------------||-8-8-8-8--8-8-8-8-|-8-8-8-8-8-8-8---8-|-7-----------------|-7----------------|
D|-----------------|------------------||-----------------|------------------||-----------------|------------------||-------8-7---7-8-|-10-8-7-8-7---7---||-5-8-5-----8-----|------------8---8-||-----------------|------------------|
|
|-----------------|------------------||-----------------|------------------||-7-7-7-7-7-7-7-7-|--7-7-7-7-7-7-7-7-||-x-x-x-x-x-x-x-x-|--x-x-x-x-x-x-x-x-||-5-5-5-5-5-5-5-5-|--5-5-5-5-5-5-5-5-||-----------------|------------------|
F G A|-------------------------|-------------------------||-------------------------|-------------------------||-----------7--5-----7--5-|-----7--5-----7--5-------||-----------------8-------|--8--------8--------8----||--7--8--8----------------|-------------------------||-------------------------|-------------------------|
|
|-------------------------|-------------------------||-------------------------|-------------------------||-10-10-10-10-10-10-10-10-|-12-12-12-12s14-14-14-14-||--x--x--x--x--x--x--x--x-|--x--x--x--x--x--x--x--x-||--8--8--8--8--8--8--8--8-|-10-10-10-10s12-12-12-12-||-------------------------|-------------------------|
Bb5 APM----| PM--||------------------|-------------------|-------------------|------------------|||------------------|-------------------|-------------------|------------------|||------------------|-------------------|-------10-----10---|---10-----10------|||---------10p0-7h8p|=7---7p0-3-0-2b3r==|==========8p7----8p|=7----8p7----8p7--|||---5-7-8----------|---8---------------|-------------------|------------------|||-8----------------|-------------------|-7-7-7-------------|------------------||
|
| PM| PM| PM--| PM| PM PM TP TP|------------------|-------------------|-------------------|------------------|||------------------|-------------------|-------------------|------------------|||------------------|-------------------|-------------------|------------------|||-8-----8------8---|---8-----8---8-----|-------------------|------------------|||-8-8-8-8--8-8-8-8-|-8-8-8-8-8-8-8---8-|-------------------|------------------|||-8-8-8-8--8-8-8-8-|-8-8-8-8-8-8-8---8-|-7-----------------|-7----------------||
ChorusD5 C5PM----| ~ PM----| ~||------------------|-----------------|||o-----------------|-----------------|||------------------|-----------------|||--7-7-7-7---------|-5-5-5-5---------|||o-5-5-5-5--8---7--|-3-3-3-3--8---7--|||------------------|-----------------|
|
| PM----| ~ PM----| ~||------------------|-----------------|||o-----------------|-----------------|||----------10---9--|---------10---9--|||--7-7-7-7---------|-5-5-5-5---------|||o-5-5-5-5---------|-3-3-3-3---------|||------------------|-----------------|
1.,2.F5 E5PM------| ~ PM----| ~|---------------------|-------------------|||---------------------|------------------o|||---------------------|-------------------|||-10-10-10-10---------|-9-9-9-9-----------|||--8--8--8--8--8---7--|-7-7-7-7--8---7---o|||---------------------|-------------------||
|
| PM------| ~ PM----| ~|---------------------|-------------------|||---------------------|------------------o|||-------------10---9--|---------10---9----|||-10-10-10-10---------|-9-9-9-9-----------|||--8--8--8--8---------|-7-7-7-7----------o|||---------------------|-------------------||
3.165N.C.3/4 4/4PM|-----------|------|||-----------|------|||-----------|------|||-----------|------|||-7----7--5-|-3----|||-----------|------||
|
| PM|-----------|------|||-----------|------|||-----12-10-|-9----|||-----------|------|||-7---------|------|||-----------|------||
Guitar SoloGtr V|------------------------|--------------------||------------------------|---------10---10h11p||-7b9====(7)r-(7)-7------|-(7)---7----7-------||------------------------|--------------------||------------------------|--------------------||------------------------|--------------------|
|
| Gtr III|------------------------|--------------------||------------------------|--------------------||------------------------|--------------------||--------------------2-3-|--5-------2-3--2----||-5----------------------|--------------------||------------------------|--------------------|
|
| Gtr IV|------------------------|--------------------||------------------------|--------------------||------------------------|--------------------||------------------------|--------------------||--------------------1-3-|--5-------0----0----||-0----------------------|------------3-------|
|---------------|------------------------||-10------------|------------------------||---------------|-------10-9-10h12p10p9--||---------/12---|-10---------------------||---------------|------------------------||---------------|------------------------|
|
|---------------|------------------------||---------------|------------------------||---------------|------------------------||---------------|--2-----2-3--2----------||--3--------3-5-|------------------------||---------------|------------------------|
|
|---------------|------------------------||---------------|------------------------||---------------|------------------------||---------------|------------------------||---------------|--0---------------------||--3--------3-5-|--------5-3--2-----3----|
|-------------|-------------------------------------||-------------|------------------10-8---10-11-10-11-||-10----------|-10-9-10-12-10-12--------------------||-------------|-------------------------------------||-------------|-------------------------------------||-------------|-------------------------------------|
|
|-------------|-------------------------------------||-------------|-------------------------------------||-------------|-------------------------------------||---------2-3-|--5----------------2---3-----2-------||--5----------|-------------------------------------||-------------|-------------------------------------|
|
|-------------|-------------------------------------||-------------|-------------------------------------||-------------|-------------------------------------||-------------|-------------------------------------||---------1-3-|--5----------------0---------0-------||--0----------|-----------------------3-------------|
~~~|------------------------|-----------------||-10h11p10-8-10-8----8---|-----------------||-----------------10-----|-10----[9]-------||------------------------|-----------------||------------------------|-----------------||------------------------|-----------------|
|
|------------------------|-----------------||------------------------|-----------------||------------------------|-----------------||------------------------|--2-----2--3-2---||--3-----------------3-5-|-----------------||------------------------|-----------------|
|
|------------------------|-----------------||------------------------|-----------------||------------------------|-----------------||------------------------|-----------------||------------------------|--0--------------||--3-----------------3-5-|--------5--3-2-3-|
PM-----------------------||-----------------------------|-------------||-----------------------------|-------------||-5-3-5-7-5-7-9-7-9-10-7---10-|-9-----------||-----------------------------|-------------||-----------------------------|-------------||-----------------------------|-------------|
|
|-----------------------------|-------------||-----------------------------|-------------||-----------------------------|-------------||--------------------2---3----|-5----2-3-2--||-5---------------------------|-------------||-----------------------------|-------------|
|
|-----------------------------|-------------||-----------------------------|-------------||-----------------------------|-------------||-----------------------------|-------------||--------------------1---3----|-5----0---0--||-0---------------------------|--------3----|
|-----------------------8-8b10==|=(8)--------(8)-(8)r--||---------------8-10-11---------|----------------------||--------7-9-10-----------------|----------------------||-7-8-10------------------------|----------------------||-------------------------------|----------------------||-------------------------------|----------------------|
|
|-------------------------------|----------------------||-------------------------------|----------------------||-------------------------------|----------------------||-------------------------------|--2-----2-3--2--------||-3---------------------3-5-----|----------------------||-------------------------------|----------------------|
|
|-------------------------------|----------------------||-------------------------------|----------------------||-------------------------------|----------------------||-------------------------------|----------------------||-------------------------------|--0-------------------||-3---------------------3-5-----|--------5-3--2---3----|
|-13p12-------13p12-------13p12------|----13p12-----------------||------------------------------------|--------------------------||-------14----------14------------14-|----------14--------------||----------12----------12------------|-12----------12-(12)------||------------------------------------|--------------------------||------------------------------------|--------------------------|
|
|------------------------------------|--------------------------||------------------------------------|--------------------------||------------------------------------|--------------------------||--------------------------2----3----|--5---------------2--3-2--||--5---------------------------------|--------------------------||------------------------------------|--------------------------|
|
|------------------------------------|--------------------------||------------------------------------|--------------------------||------------------------------------|--------------------------||------------------------------------|--------------------------||--------------------------1----3----|--5---------------0----0--||--0---------------------------------|---------------------3----|
|-17p15-------17p15-------17p15------|----17p15--------------------|||------------------------------------|-----------------------------|||-------17----------17------------17-|----------17-----------------|||----------15----------15------------|-15----------15-(15)---------|||------------------------------------|-----------------------------|||------------------------------------|-----------------------------||
|
|------------------------------------|-----------------------------|||------------------------------------|-----------------------------|||------------------------------------|-----------------------------|||------------------------------------|--2---------------2--3-2-----|||--3-----------------------3----5----|-----------------------------|||------------------------------------|-----------------------------||
|
|------------------------------------|-----------------------------|||------------------------------------|-----------------------------|||------------------------------------|-----------------------------|||------------------------------------|-----------------------------|||------------------------------------|--0--------------------------|||--3-----------------------3----5----|------------------5--3-2-3---||
Let's get harmonizing!Gtr III|--------------|------------------|-------------|-----------------||--------------|------------------|-------------|-----------------||---------9-10-|-12----12-10-9----|-9------9-10-|-12----10-9----9-||-12-----------|---------------12-|-------------|------------12---||--------------|------------------|-------------|-----------------||--------------|------------------|-------------|-----------------|
|
| Gtr IV|--------------|------------------|-------------|-----------------||--------------|------------------|-------------|-----------------||--------------|------------------|-------------|-----------------||---------2--3-|--5-----2--3-2----|-------------|--2-----2-3--2---||--5-----------|------------------|-3------3--5-|-----------------||--------------|------------------|-------------|-----------------|
|--------------|------------------|-------------|------------------||--------------|------------------|-------------|------------------||-10------9-10-|-12----12-10-9----|-9------9-10-|-12----12-10-9----||--------------|---------------12-|-------------|---------------12-||--------------|------------------|-------------|------------------||--------------|------------------|-------------|------------------|
|
|--------------|------------------|-------------|------------------||--------------|------------------|-------------|------------------||--------------|------------------|-------------|------------------||---------2--3-|--5-----2--3-2----|-------------|--2-----2--3-2----||--5-----------|------------------|-3------3--5-|------------------||--------------|------------------|-------------|------------------|
Q=1803/4PM| PM PM| PM|----------------------|-----------------|--------------|-----------------||----12-13-15-13-12h13p|=12-13-12--------|--------------|-----------------||-14-------------------|----------14-12--|--------------|-----------------||----------------------|-----------------|-----10---10--|-------12----12--||----------------------|-----------------|-8-8----8-----|-10-10----10-----||----------------------|-----------------|--------------|-----------------|
|
| PM| PM PM| PM|----------------------|-----------------|--------------|-----------------||----------------------|-----------------|--------------|-----------------||-----9-10-12-10--9h10p|==9-10--9--------|------9----9--|-------10----10--||-12-------------------|----------12-10--|-7-7----7-----|--8--8-----8-----||----------------------|-----------------|--------------|-----------------||----------------------|-----------------|--------------|-----------------|
|----------------------|-----------------|------------|----------------||----12-13-15-13-12h13p|=12-13-12--------|------------|----------------||-14-------------------|----------14-12--|------------|----------------||----------------------|-----------------|-2-------3--|-3----------5---||----------------------|-----------------|---3-0-3----|----5-2--5------||----------------------|-----------------|------------|----------------|
|
|----------------------|-----------------|------------|----------------||----------------------|-----------------|------------|----------------||-----9-10-12-10--9h10p|==9-10p=9--------|------------|----------------||-12-------------------|----------12-10--|-7-------8--|-8---------10---||----------------------|-----------------|---8-5-8----|---10-7-10------||----------------------|-----------------|------------|----------------|
PM| PM PM| PM|--------------------|---------------|------------|---------------||--------------------|---------------|------------|---------------||----5--7--9--7-5h=7p|=5--7-5--------|-----5---5--|------7----7---||--7-----------------|---------7--5--|-3-3---3----|-5-5----5------||--------------------|---------------|------------|---------------||--------------------|---------------|------------|---------------|
|
| PM| PM PM| PM|--------------------|---------------|------------|---------------||--------------------|---------------|------------|---------------||----9-10-12-10-9h10p|=9-10-9--------|-----9---9--|-----10---10---||-12-----------------|--------12-10--|-7-7---7----|-8-8----8------||--------------------|---------------|------------|---------------||--------------------|---------------|------------|---------------|
|--------------------|---------------|------------|----------------|||--------------------|---------------|------------|----------------|||----5--7--9--7-5h=7p|=5--7-5--------|------------|----------------|||--7-----------------|---------7--5--|-2-------3--|-3----------5---|||--------------------|---------------|---3-0-3----|----5-2--5------|||--------------------|---------------|------------|----------------||
|
|--------------------|---------------|------------|----------------|||--------------------|---------------|------------|----------------|||----9-10-12-10-9h10p|=9-10p9--------|------------|----------------|||-12-----------------|--------12-10--|-7-------8--|-8---------10---|||--------------------|---------------|---8-5-8----|---10-7-10------|||--------------------|---------------|------------|----------------||
InterludeQ=145G5BbD5F5 E5F5 N.C.4/4 7/4 6/4PM--||---------------|---------------|-----||---------------|---------------|-----||-------10-9-10-|---------------|-----||-------10-9-10-|---------------|-----||-5-8-0--8-7--8-|---------------|-----||-5-8-0---------|---------------|-----|
|
| PM--||---------------|---------------|-----||---------------|---------------|-----||-------10-9-10-|---------------|-----||-------10-9-10-|---------------|-----||-5-8-0--8-7--8-|---------------|-----||-5-8-0---------|---------------|-----|
4/4|---------|-------||---------|-------||---------|-------||---------|-x\----||---------|-x\----||---------|-------|
|
|---------|-------||---------|-------||---------|-------||---------|-x\----||---------|-x\----||---------|-------|
D5/G D5 D5/G F5/Bb|---------------------------|---------------------------||---------------------------|---------------------------||-14-14---14-14-14-14-14-14-|--14s=17-17-17-17-17-17-17-||--x--x----x--x--x--x--x--x-|---x------x--x--x--x--x--x-||-12-12---12-12-12-12-12-12-|--12s=15-15-15-15-15-15-15-||---------------------------|---------------------------|
|
|---------------------------|---------------------------||---------------------------|---------------------------||---------------------------|---------------------------||--7----0-----7-10----------|-(10)----------------------||--5----0-----5--8----------|--(8)----------------------||--5----0-----5--8----------|--(8)----------------------|
D5/G D5 D5/G F5/Bb|----------------------------|----------------------||----------------------------|----------------------||-17-17s==9-9--9b9.5==9r-9-9-|---9--9-9-9-9-9-9-9---||--x--x-----x--x------x--x-x-|---x--x-x-x-x-x-x-x---||-15-15s==7-7--7b7.5==7r-7-7-|---7--7-7-7-7-7-7-7---||----------------------------|----------------------|
|
|----------------------------|----------------------||----------------------------|----------------------||----------------------------|----------------------||--7----0---7-10-------------|-(10)-----------------||--5----0---5--8-------------|--(8)-----------------||--5----0---5--8-------------|--(8)-----------------|
D5/G D5 D5/G F5/Bb|--------------------------|---------------------------||--------------------------|---------------------------||-9s14---14-14-14-14-14-14-|--14s=17-17-17-17-17-17-17-||-x-------x--x--x--x--x--x-|---x------x--x--x--x--x--x-||-7s12---12-12-12-12-12-12-|--12s=15-15-15-15-15-15-15-||--------------------------|---------------------------|
|
|--------------------------|---------------------------||--------------------------|---------------------------||--------------------------|---------------------------||-7----0-----7-10----------|-(10)----------------------||-5----0-----5--8----------|--(8)----------------------||-5----0-----5--8----------|--(8)----------------------|
D5/G D5 D5/G F5/Bb|-------------------------------|------------------------------||-------------------------------|------------------------------||-17s19---19-19-19-19b20==19-19-|--19--19-19-19-19-19-19-19r---||--x-------x--x--x--x------x--x-|---x---x--x--x--x--x--x--x----||-15s17---17-17-17-17b18==17-17-|--17--17-17-17-17-17-17-17r---||-------------------------------|------------------------------|
|
|-------------------------------|------------------------------||-------------------------------|------------------------------||-------------------------------|------------------------------||--7----0-----7-10--------------|-(10)-------------------------||--5----0-----5--8--------------|--(8)-------------------------||--5----0-----5--8--------------|--(8)-------------------------|
D5/G|-----------|-----||-----------|-----||-----------|-----||-----------|-----||-----------|-----||-----------|-----|
|
|-----------|-----||-----------|-----||-----------|-----||-7\--------|-----||-5\--------|-----||-5\--------|-----|
N.C.Gtr I||--10-----------------------|-----------------|||o------10------------------|-----------------|||-----------9b10==(9)r-(9)--|-(9)-------------|||---------------------------|-----------------|||o--------------------------|-----------------|||---------------------------|-----------------|
|
| Gtr II||---0-----------------------|--0------3-------|||o----6---------------------|-----6-----6-----|||--------5-(5)--------------|-------5-----5---|||---------------------------|-----------------|||o--------------------------|-----------------|||---------------------------|-----------------|
|-8-----------------------|-------------------|||-----10------------------|------------------o|||---------9b10==(9)r-(9)--|-(9)---------------|||-------------------------|-------------------|||-------------------------|------------------o|||-------------------------|-------------------||
|
|-0-----------------------|--0------3---------|||---6---------------------|-----6-----6------o|||------5-(5)--------------|-------5-----5-----|||-------------------------|-------------------|||-------------------------|------------------o|||-------------------------|-------------------||
6/4|-10----------------------|------------|--8-----------------------|--------|||------10-----------------|------------|-------10-----------------|--------|||---------9b10==(9)r-(9)--|-(9)--------|----------9b10==(9)r-(9)--|-(9)----|||-------------------------|------------|--------------------------|--------|||-------------------------|------------|--------------------------|--------|||-------------------------|------------|--------------------------|--------||
|
|--0----------------------|-(0)--------|-(0)----------------------|-(0)----|||--6----------------------|-(6)--------|-(6)----------------------|-(6)----|||-------------------------|------------|--------------------------|--------|||-------------------------|------------|--------------------------|--------|||-------------------------|------------|--------------------------|--------|||-------------------------|------------|--------------------------|--------||
"This is seraph's dream..."Q=130 Q=210D54/4 7/4Gtr IIIPM------------------------------||---------------------|---------------------|-------------||---------------------|---------------------|-------------||---------------------|---------------------|-------------||---------------------|---------------------|-------------||-0-0-0-0-0---0-0-0-0-|-0-0-0-0-0---0-0-0-0-|-------------||-0-0-0-0-0---0-0-0-0-|-0-0-0-0-0---0-0-0-0-|-------------|
|
| Gtr IV| PM------------------------------||---------------------|---------------------|-------------||---------------------|---------------------|-------------||---------------------|---------------------|-------------||---------------------|---------------------|-------------||-0-0-0-0-0---0-0-0-0-|-0-0-0-0-0---0-0-0-0-|-------------||-0-0-0-0-0---0-0-0-0-|-0-0-0-0-0---0-0-0-0-|-------------|
Q=190 Q=210N.C.4/4 2/4 3/4 2/4PM--------| TP TP|-----------------|---------|-------------|-------|---------||-----------------|---------|-------------|-------|---------||-----------------|---------|-------------|-------|---------||---8p7p0-7p6p0-6p|=5p0-5p4-|-5-6-6-7-6-5-|-5--6--|-5S=10\--||-----------------|---------|-------------|-------|-4S==9\--||-0---------------|---------|-------------|-------|---------|
|
| TP TP|-----------------|---------|-------------|-------|---------||-----------------|---------|-------------|-------|---------||-----------------|---------|-------------|-------|---------||-----------------|---------|-5-6-6-7-6-5-|-5--6--|-5S=10\--||---8p7p0-7p6p0-6p|=5p0-5p4-|-------------|-------|-4S==9\--||-0---------------|---------|-------------|-------|---------|
F5 D#54/4 2/4 4/4|----------------------|---------|-----------|||----------------------|---------|-----------|||-0-0-0-7-0-9-0-10-0---|---------|-----------|||----------------------|-0-7p6p0-|-3----1----|||----------------------|---------|-3----1----|||----------------------|---------|-3----1----||
|
|----------------------|---------|-----------|||----------------------|---------|-----------|||-0-0-0-7-0-9-0-10-0---|---------|-----------|||----------------------|-0-5p4p0-|-3----1----|||----------------------|---------|-3----1----|||----------------------|---------|-3----1----||
Q=150D5 D5 D5 F5 G5PM-||-----------------|---------------||-----------------|---------------||----[7]-----[7]--|----[7]--------||-0-------0-------|-0-------------||-0-------0-------|-0-------3--5--||-0-------0-------|-0-------3--5--|
|
| PM-||-----------------|---------------||-----------------|---------------||----[7]-----[7]--|----[7]--------||-0-------0-------|-0-------------||-0-------0-------|-0-------3--5--||-0-------0-------|-0-------3--5--|
D5 D5 D5|-----------------|------------------------------|||-----------------|------------------------------|||----[7]-----[7]--|-------------------3-4-5-6-7--|||-0-------0-------|----------3--4-5-6------------|||-0-------0-------|-3-4-5-6----------------------|||-0-------0-------|------------------------------||
|
|-----------------|------------------------------|||-----------------|------------------------------|||----[7]-----[7]--|---------[7]------------------|||-0-------0-------|-0----------------------------|||-0-------0-------|-0----------------------------|||-0-------0-------|-0----------------------------||
Q=300D5 F5 C#53/4Gtr I|-----------|-------------|----------|----------||-----------|-------------|----------|----------||-7--7-7-7--|-10--10--10--|-6--6--6--|-6--6--6--||-7--7-7-7--|-10--10--10--|-6--6--6--|-6--6--6--||-5--5-5-5--|--8---8---8--|-4--4--4--|-4--4--4--||-----------|-------------|----------|----------|
|
| Gtr IV|-----------|-------------|----------|----------||-----------|-------------|----------|----------||-----------|-------------|----------|-7--7--7--||-----------|-------------|----------|-7--7--7--||-----------|-------------|----------|-5--5--5--||-----------|-------------|----------|----------|
D5 F5 C#5|-----------|-------------|-------------|--------||-----------|-------------|-------------|--------||-7--7-7-7--|-10--10--10--|-6-6-6-6-6-6-|-6------||-7--7-7-7--|-10--10--10--|-6-6-6-6-6-6-|-6------||-5--5-5-5--|--8---8---8--|-4-4-4-4-4-4-|-4------||-----------|-------------|-------------|--------|
|
|-----------|-------------|-------------|--------||-----------|-------------|-------------|--------||-7---------|-------------|-------------|--------||-7---------|-------------|-------------|--------||-5---------|-------------|-------------|--------||-----------|-------------|-------------|--------|
D5 F5 C#+5Gtr III4x||------------|-------------|----------|------------||||o-----------|-------------|----------|-----------o||||--7--7-7-7--|-10--10--10--|-6--6--6--|-6--6--6----||||--7--7-7-7--|-10--10--10--|-5--5--5--|-5--5--5----||||o-5--5-5-5--|--8---8---8--|-4--4--4--|-4--4--4---o||||------------|-------------|----------|------------||
|
| Gtr IV| 4x||------------|-------------|----------|------------||||o-----------|-------------|----------|-----------o||||--7--7-7-7--|-10--10--10--|-6--6--6--|-6--6--6----||||--7--7-7-7--|-10--10--10--|-5--5--5--|-5--5--5----||||o-5--5-5-5--|--8---8---8--|-4--4--4--|-4--4--4---o||||------------|-------------|----------|------------||
BuildupQ=155D54/4Gtr VIPM------------------------------------||-----------------|-----------------------||-----------------|-----------------------||-----------------|-----------------------||-----------------|-----------------------||-0-0-0-0-0-0-0-0-|-0-0-0-0-0-0-0-0-0-0-0-||-0-0-0-0-0-0-0-0-|-0-0-0-0-0-0-0-0-0-0-0-|
PM----------------------------------------||-----------------|---------------------------||-----------------|---------------------------||-----------------|---------------------------||-----------------|---------------------------||-0-0-0-0-0-0-0-0-|-0-0-0-0-0-0-0-0-0-0-0-0-0-||-0-0-0-0-0-0-0-0-|-0-0-0-0-0-0-0-0-0-0-0-0-0-|
PM------------------------------|||------------------|------------------||||o-----------------|-----------------o||||------------------|------------------||||------------------|------------------||||o-0-0-0-0-0-0-0-0-|-0-0-0-0-0-0-0-0-o||||--0-0-0-0-0-0-0-0-|-0-0-0-0-0-0-0-0--||
BreakdownD5Gtr IIIPM------------------------------------|||--------------------|----------------------||||o-------------------|---------------------o||||--------------------|----------------------||||--------------------|----------------------||||o-0-0-0-0-0-0-0-0-0-|-0-0-0-0-0-0-0-0-0-0-o||||--0-0-0-0-0-0-0-0-0-|-0-0-0-0-0-0-0-0-0-0--||
|
| Gtr IV| PM------------------------------------|||--------------------|----------------------||||o-------------------|---------------------o||||--------------------|----------------------||||--------------------|----------------------||||o-0-0-0-0-0-0-0-0-0-|-0-0-0-0-0-0-0-0-0-0-o||||--0-0-0-0-0-0-0-0-0-|-0-0-0-0-0-0-0-0-0-0--||
Q=170D5 D57/4Gtr I|------------------------------------------||------------------------------------------||----------------------12-14-15-15--14-----||-------------12-13-15---------------------||----12-13-15------------------------------||------------------------------------------|
|
| Gtr IV|------------------------------------------||------------------------------------------||------------------------------------------||------------------------------------------||-0------------------------------------0---||-0------------------------------------0---|
D5 D5|------------------------------------------||------------------------------------------||----------------------12-14-15-15--14-----||-------------12-13-15---------------------||----12-13-15------------------------------||------------------------------------------|
|
|------------------------------------------||------------------------------------------||------------------------------------------||------------------------------------------||-0------------------------------------0---||-0------------------------------------0---|
D5 D5|---------------------------------------------||---------------------------------------------||-------------------------12-14-15-15--14-----||---------------12-13--15---------------------||----12-13---15-------------------------------||---------------------------------------------|
|
|---------------------------------------------||---------------------------------------------||---------------------------------------------||---------------------------------------------||-0---0----0-----0------------------------0---||-0---0----0-----0------------------------0---|
D58/4|----------------------------------------------|||----------------------------------------------|||----------------------12-14-15-15--14---17----|||-------------12-13-15-------------------------|||----12-13-15----------------------------------|||----------------------------------------------||
|
|----------------------------------------------|||----------------------------------------------|||----------------------------------------------|||----------------------------------------------|||-0--------------------------------------------|||-0--------------------------------------------||
Bass breakQ=155N.C.4/4Gtrs III, IV|-----||-----||-----||-----||-----||-----|
OutroQ=69H.=H QN.C.Gtr I|--------------|---------------------------||--------------|-------10----10------------||-5---5S7-7----|-10S12----12----12-10------||-5-------7----|----------------------8----||--------------|---------------------------||--------------|---------------------------|
|
| Gtr II|--------------|---------------------------||--------------|---------------------------||-7-------2----|--0-------------------3----||-7-------2----|--0-------------------3----||--------------|---------------------------||--------------|---------------------------|
=66|-------------------------------|-------------------------------||-------------------------------|-------------------------------||-------------------------------|-------------------------------||-------10-12-12-10-------14-15-|-------14-15-------14-15-14----||-10-12-------------12-13-------|-12-13-------12-13-------------||-------------------------------|-------------------------------|
|
|-------------------------------|-------------------------------||-------------------------------|-------------------------------||--7-----------------2----------|--0-----------------------3----||--7-----------------2----------|--0-----------------------3----||-------------------------------|-------------------------------||-------------------------------|-------------------------------|
H.=H Q|------------------------|-------------------------------||------------------------|-------------------------------||-12-----12-14--14-12-12-|-------------12-14-14-12-------||-----15-----------------|-------12-15-------------------||------------------------|-12-13-------------------13----||------------------------|-------------------------------|
|
|------------------------|-------------------------------||------------------------|-------------------------------||--7---------2-----------|--0-----------------------3----||--7---------2-----------|--0-----------------------3----||------------------------|-------------------------------||------------------------|-------------------------------|
=63|-------------------------|-------------------------||-13-15-15-13-------------|-------------------------||-------------12----------|-------------------------||----------------15-(15)--|-15-14-------14-15-14----||-------------------------|-------12-13-------------||-------------------------|-------------------------|
|
|-------------------------|-------------------------||-------------------------|-------------------------||--7-----------2----------|--0-----------------3----||--7-----------2----------|--0-----------------3----||-------------------------|-------------------------||-------------------------|-------------------------|
|--------------------|------------------------------||-13-13-13-------15--|---------------------13--(13)-||----------14--------|-15S14-14-(14)-14S15----------||-------------12-----|------------------------------||--------------------|------------------------------||--------------------|------------------------------|
|
|--------------------|------------------------------||--------------------|------------------------------||--7--------2--------|--0-------------3-------------||--7--------2--------|--0-------------3-------------||--------------------|------------------------------||--------------------|------------------------------|
H.=H|--------------------|--------------------||-13-13-13-13--------|-13-13-13-13-13-13--||-------------14-14--|--------------------||--------------------|--------------------||--------------------|--------------------||--------------------|--------------------|
|
|--------------------|--------------------||--------------------|--------------------||--7--------2--------|--0--------3--------||--7--------2--------|--0--------3--------||--------------------|--------------------||--------------------|--------------------|
Q=60|-------------|---------------|----------------|-------------||-13----------|---------------|----------------|-------------||-------12----|-----------7---|-----7---(7)----|-(7)---------||-------------|-15----7S8-----|-7S8------------|-------------||-------------|---------------|----------------|-------------||-------------|---------------|----------------|-------------|
|
|-------------|---------------|----------------|-------------||-------------|---------------|----------------|-------------||--7-----2----|--0----3-------|-7--------7-----|--7-----7----||--7-----2----|--0----3-------|-7--------7-----|--7-----7----||-------------|---------------|----------------|-------------||-------------|---------------|----------------|-------------|
|------------|------------|------------|--------*||------------|------------|------------|--------*||-(7)--------|-(7)--------|-(7)--------|-(7)----*||------------|------------|------------|--------*||------------|------------|------------|--------*||------------|------------|------------|--------*|
|
|------------|------------|------------|--------*||------------|------------|------------|--------*||--7---------|-(7)--------|-(7)--------|-(7)----*||--7---------|-(7)--------|-(7)--------|-(7)----*||------------|------------|------------|--------*||------------|------------|------------|--------*|
Please rate this tab:
x1.0