The Red Jumpsuit Apparatus – Damn Regret Acoustic tab ver. 2

DAMN REGRET(ACOUSTIC)- The Red Jumpsuit Apparatus

  *The rhythm guitar in the intro, outro, chorus and bridge's strumming pattern
   is not written, you can figure it out yourselves

INTRO

Lead 

|-----5-------5-------5-||-2h3---3-2h3---3-2h3---||-2-----2-2-----2-2-----||-----------------------| 5x|-----------------------||-----------------------|
|-----5-----3-0-2-------||-2h3---3-2-------------||-2-----2---------------||-----------------------||-----------------------||-----------------------|
|-----5-------5-------5-||-2h3---3-2h3---3-2h3---||-2-----2-2-----2-2-----||-----------------------| 3x|-----------------------||-----------------------|
|-----5-----3-0-2-------||-2h3---3-2-------------||-2-----2---------------||-----------------------||-----------------------||-----------------------|
Rhythm
|-----------------------------------||-3--------3-----------------3----3-||-2--------2--------7--------4----2-||-0--------2--------5--------4----2-| 2x|-0--------0--------5--------2----0-||-0--------0--------5-------------0-|
VERSE 1 Rhythm
|----------2---------------------------------||----------3--------7------------------------||-2--------2--------7--------------2/4-2-0---||-0--------2--------5---------0-4----------4-||-0--------0--------5------------------------||-0--------0--------5--------4---4-----------|
|----------2---------------------------------||-3--------3--3-----7------------------------||----------2----2---7------------4-----------||----------2--------5----------4---4-----5---||----------0--------5--------2---------5---5-||----------0--------5----------------5-------|
PRE-CHORUS Rhythm
|-------------------------------------------------------||-------------------------------------------------------||-------------------------------------------------------||-2-2-2-2-2-2-2-4-5-5-5-5-5-5-5-9-9-9-7-7-7-7-5-5-5-5-7-||-2-2-2-2-2-2-2-4-5-5-5-5-5-5-5-9-9-9-7-7-7-7-5-5-5-5-7-||-2-2-2-2-2-2-2-4-5-5-5-5-5-5-5-9-9-9-7-7-7-7-5-5-5-5-7-|
CHORUS Lead
|-----5-------5-------5-||-2h3---3-2h3---3-2h3---||-2-----2-2-----2-2-----||-----------------------| 3x|-----------------------||-----------------------|
|-----5-----3-0-2-------||-2h3---3-2-------------||-2-----2---------------||-----------------------||-----------------------||-----------------------|
|-----5-------5-------5-||-2h3---3-2h3---3-2h3---||-2-----2-2-----2-2-----||-----------------------| 3x|-----------------------||-----------------------|
|-----5-----3-0-2-------||-2h3---3-2-------------||-2-----2---------------||-----------------------||-----------------------||-----------------------|
Rhythm
|-----------------------------------||-3--------3-----------------3----3-||-2--------2--------7--------4----2-||-0--------2--------5--------4----2-| 2x|-0--------0--------5--------2----0-||-0--------0--------5-------------0-|
VERSE 2
|---------------------------------------------||-3----3/5-5--------7-------------------------||-2--2-----2--2--2--7---7-----------2/4-2-0---||-0-0------2-2--2---5---5------0-4----------4-||-0--------0---0----5--5----------------------||-0--------0--------5-5------4-----4----------|
|---------------------------------------------||-3----3/5-5-3------7-------------------------||-2--2-----2---2----7---7---------4-----------||-0-0------2---2-2--5---5-------4---4-----5---||----------0--------5--5------2---------5---5-||----------0--------5-5---------------5-------|
PRE-CHORUS Rhythm
|---------------------------------------------------------||---------------------------------------------------------||---------------------------------------------------------||-2-2-2-2-2-2-2-4-5-5-5-5-5-5-5-9-9-9-7-7-7-7-5-5-5-5-7-7-||-2-2-2-2-2-2-2-4-5-5-5-5-5-5-5-9-9-9-7-7-7-7-5-5-5-5-7-7-||-2-2-2-2-2-2-2-4-5-5-5-5-5-5-5-9-9-9-7-7-7-7-5-5-5-5-7-7-|
CHORUS Lead
|-----5-------5-------5-||-2h3---3-2h3---3-2h3---||-2-----2-2-----2-2-----||-----------------------| 3x|-----------------------||-----------------------|
|-----5-----3-0-2-------||-2h3---3-2-------------||-2-----2---------------||-----------------------||-----------------------||-----------------------|
|-----5-------5-------5-||-2h3---3-2h3---3-2h3---||-2-----2-2-----2-2-----||-----------------------| 3x|-----------------------||-----------------------|
Rhythm
|-----------------------------------||-3--------3-----------------3----3-||-2--------2--------7--------4----2-||-0--------2--------5--------4----2-| |-0--------0--------5--------2----0-||-0--------0--------5-------------0-|
|-----------------------------------||-3--------3-----------------2------||-2--------2--------7--------2------||-0--------2--------5--------2------| |-0--------0--------5--------0------||-0--------0--------5--------0------|
BRIDGE
|----------------------------------------||----------------------------------------||-4--------------------------------------||-4--------5--------0--------7-7-7-------||-2--------5--------0--------7-7-7-------||----------5--------0--------7-7-7-6-7-8-|
|----------------------------------------||---------------------------------3------||---------------------------------2------||-9--------5--------0000000000000-0------||-9--------5--------0000000000000-0------||-9--------5--------0000000000000-0------|
CHORUS Lead
|-----5-------5-------5-||-2h3---3-2h3---3-2h3---||-2-----2-2-----2-2-----||-----------------------| 3x|-----------------------||-----------------------|
|-----5-----3-0-2-------||-2h3---3-2-------------||-2-----2---------------||-----------------------||-----------------------||-----------------------|
|-----5-------5-------5-||-2h3---3-2h3---3-2h3---||-2-----2-2-----2-2-----||-----------------------| 3x|-----------------------||-----------------------|
|-----5-----3-0-2-------||-2h3---3-2-------------||-2-----2---------------||-----------------------||-----------------------||-----------------------|
|--------------------------------------------------------------||-3-2-3-2-3-2-3-2-3-2-3-2-3-2-3-2-3-2-3-2-3-2-3-2-3-2-3-2-/7-5-||--------------------------------------------------------------||--------------------------------------------------------------| 2x|--------------------------------------------------------------||--------------------------------------------------------------|
Rhythm
|-----------------------------------||-3--------3-----------------3----3-||-2--------2--------7--------4----2-||-0--------2--------5--------4----2-| 4x|-0--------0--------5--------2----0-||-0--------0--------5-------------0-|
OUTRO Lead
|-----5-------5-------5-||-2h3---3-2h3---3-2h3---||-2-----2-2-----2-2-----||-----------------------| |-----------------------|
Rhythm
|-----------------||-3-------------2-||-2--------4----2-||-0--------4----2-||-0--------2----0-||-0-------------0-|
Please rate this tab:
x1.0