The Red Shore - Thy Devourer tab

Play the intro fast


Intro|----------------------------------------------------------||----------------------------------------------------------||----------------------------------------------------------||----------------------------------------------------------| x3|-------------5-5-5-5---------5-5-6-6---------5------------||-0-0-0-0-0-0---------0-0-0-0---------8-8-6-6-5------------|
|----------------------------------------------------------||----------------------------------------------------------||----------------------------------------------------------||----------------------------------------------------------||-------------5-5-5-5---------5-5-5-5-6-6-5----------------||-0-0-0-0-0-0---------0-0-0-0------------------------------|
Verse|-------------------------------------------------------||-------------------------------------------------------||-------------------------------------------------------||-------------------------------------------------------|x2 |---------5-5-5-5-----6-6-5-5-3-3--------5-5-5-5-6-6-5--||-0-0-0-0---------0-0-------------0-0-0-0---------------|
Harmony|------------------------------------------||------------------------------------------||---------7-7-7-7-----8-8-7-7-5-5----------||-0-0-0-0---------0-0----------------------|x4 with verse|------------------------------------------||------------------------------------------|
Now they throw in sweeps and taps|-----------8h11p8-----------------------10h13----------------||---------9-------9-------------------11------11--------------||-------10---------10---------------12----------12------------||-----10-------------10-----------12--------------12----------||-8h11-----------------11p8--10h13------------------13p10-----||-------------------------------------------------------------|
|-----------------------------------------------------------------||-----------------------------------------------------------------||-----------------------------------------------------------------||-------------------------------------------------5-5-------------||---------5-5-5-5-----6-6-5-5-3-3---------5-5-6-6-----6-6-5-5-3-3-||-0-0-0-0---------0-0-------------0-0-0-0-------------------------|
|-----------------------------------||-----------------------------------||-----------------------------------||-----------------------------------||---------5-5-5-5-----6-6-5-5-3-3---||-0-0-0-0---------0-0---------------|
Very fast, serious tappage|15T-11-8-15T-11-8-16T-12-9-16T-12-9-20T-18-16-20T-18-16-20T-18-16--||-------------------------------------------------------------------||-------------------------------------------------------------------||-------------------------------------------------------------------||-------------------------------------------------------------------||-------------------------------------------------------------------|
|-----------------------------------------------------------------||-------------------------------------------------7-7-------------||---------7-7-7-7-----8-8-7-7-5-5---------7-7-8-8-----8-8-7-7-5-5-|x2|-0-0-0-0---------0-0-------------0-0-0-0-------------------------||-----------------------------------------------------------------||-----------------------------------------------------------------|
Breakdown|-----------------------||-----------------------||-----------------------||-1-1-1-0-0-0-1-1-1-0---||-1-1-1-0-0-0-1-1-1-0---||-1-1-1-0-0-0-1-1-1-0---|
|---------------------------------------------------------||---------------------------------------------------------||---------------------------------------------------------||-0---0-0-0-0---0--0--0---0-1-2-1-0-1-0-------------------||-0---0-0-0-0---0--0--0---0-1-2-1-0-1-0-------------------||-0---0-0-0-0---0--0--0---0-1-2-1-0-1-0-------------------|
|---------------------------------------------------------||---------------------------------------------------------||---------------------------------------------------------||-0---0-0-0-0---0--0--0---0-1-2-1-0-----------------------|x2|-0---0-0-0-0---0--0--0---0-1-2-1-0--5*-------------------||-0---0-0-0-0---0--0--0---0-1-2-1-0-----------------------|
This bit was tricky to figure out so it might sound good to me but mix it up a bit if dont like it. So distort the shit out of the guitar.|------------------------------------------------------||------------------------------------7h10-7h10-6h9-6h9-||------------------------------------------------------||-0---------------0------0~----0-1-2-------------------||-0---------------0------0~----0-1-2-------------------||-0----0-0-0-0----0------0~----0-1-2-------------------|
Along with|------------------------------------------------------||------------------------------------------------------||------------------------------------------------------||------------------------------------------------------||-4-6-7-3-5-6-4-6-7-3-5-6-4-6-7-3-5-6------------------||------------------------------------------------------|
|--------------------------------------------------------------------------||----------------------------------------------------------------12p9-12p9-||------------------------------------9p6-9p6-10p7-10p7-12p9-12p9-----------||-0---------------0------0~----0-1-2---------------------------------------||-0---------------0------0~----0-1-2---------------------------------------||-0----0-0-0-0----0------0~----0-1-2---------------------------------------|
Along with|------------------------------------------------------||------------------------------------------------------||------------------------------------------------------||------------------------------------------------------||-4-6-7-3-5-6-4-6-7-3-5-6-4-6-7-3-5-6------------------||------------------------------------------------------|
|--------------------------------------||--------------------------------------||--------------------------------------||-0---------------0------0~----0-1-2---||-0---------------0------0~----0-1-2---||-0----0-0-0-0----0------0~----0-1-2---|
|------------------------------------------------------------------||--------7-------------7-------------7------11p8-11p8-10p7-10p7----||-7-8-10---10-8-7-8-10---10-8-7-8-10---10-8------------------------||------------------------------------------------------------------||------------------------------------------------------------------||------------------------------------------------------------------|
|--------------------------------------||--------------------------------------||--------------------------------------||-0---------------0------0~----0-1-2---||-0---------------0------0~----0-1-2---||-0----0-0-0-0----0------0~----0-1-2---|
|-------------------------------------------------------12h15p12-14h17p14-17-15---||-----------------------------------------------------13--------------------16----||-7-8-10-11-10-8-7-8-10-11-10-8-7-8-10-11-10-8------14----------------------------||----------------------------------------------12h15------------------------------||---------------------------------------------------------------------------------||---------------------------------------------------------------------------------|
|------------------------------------------------------||------------------------------------------------------||------------------------------------------------------||-0-0-0-4-4-4-0-0-0-1-1-1-0-0-0-4-4-4-0-0-0-1-1-1------|x2|------------------------------------------------------||------------------------------------------------------|
|----------------------------------------------------------12p9------12p9------12p9-------||-----------12p9-12p9-----------11p8-11p8-------------------------------------------------||-12p9-12p9-----------12p9-12p9------------------12p9-12p9------12p9------12p9------12p9--|x2|-----------------------------------------------------------------------------------------||-----------------------------------------------------------------------------------------||-----------------------------------------------------------------------------------------|
|-----------------------------------------------------------||-----------------------------------------------------------||-----------------------------------------------------------||-----------------------------------------------------------|x2|-0-0-0—5h8-5h8-0-0-0-4h7-4h7-0-0-0-5h8-5h8-0-1-0-2-1-0-----||-0-0-0---------0-0-0---------0-0-0---------0-1-0-2-1-0-----|
|-----------------------------------------------------------||-----------------------------------------------------------||-------7h10-7h10------6h9-6h9------7h10-7h10---------------||-----------------------------------------------------------|x2|-0-0-0----------0-0-0--------0-0-0-----------0-1-0-2-1-0---||-0-0-0----------0-0-0--------0-0-0-----------0-1-0-2-1-0---|
|---------------------------------||---------------------------------||---------------------------------||---------------------------------|x2|-0-0-0—5h8-5h8-0-0-0-4h7-4h7-----||-0-0-0---------0-0-0-------------|
|------------------------------||------------------------------||-------7h10-7h10------6h9-6h9-||------------------------------|x2|-0-0-0----------0-0-0---------||-0-0-0----------0-0-0---------|
|----------------------------------------------12h15-T20-15p12-------------||--------------------------------------------13---------------13-----------||------------------------------------------14-------------------14---------||----------------------------------------14-----------------------14-------||-10--7--8--5--6--3--4—-10--7--8--5—12h15---------------------------15p12--||-10--7--8--5--6--3--4--10--7--8--5----------------------------------------|
Go Fuck Yourself!!!1st Solo!!!|---------------------------------12-13-15-15p13p12---------||-----------------------------------------------------------||----------/8~~~13—15~~~---18h15--------------------18p15---||-----------------------------------------------------------||-----------------------------------------------------------||-12/6b-0---------------------------------------------------|
|------------------------------------12h13h15-19T15p12-20T15p12-||---------------------------------------------------------------||-12-10-9---10-9-7----------------------------------------------||---------------------------------------------------------------||------------------10-8-10-11-10-8-0----------------------------||----------------------------------0----------------------------|
|-22T15p12-20T15p12-------------------------------------------------||-------------------------------------------------------------------||-------------------12~~~-9h10h12p10p9-10p9p7---7-------------------||--------------------------------------------11---11p9p7-9p7--------||------------------------------------------------------------11p9p7-||-------------------------------------------------------------------|
|---------------------------------------||---------------------------------------||-------------------15-14----14~~~~~----||----------14-16-17-------17------------||-14-15-17------------------------------||---------------------------------------|
And this is where I stop! thanks
Tap to rate this tab
 
# A B C D E F G H I J K L M N O P Q R S T U V W X Y Z