The Slip – Suffocation Keep tab

tune the B string up to a C (like how it sounds like on the 1st fret). sorry i don't 
the proper terms! have fun!

intro / 1st verse----------------------------------------------------------------|--0---0---0---0---0---0---0---0---0---0---0---0---0---0---0---0-|--------0---------------0---------------0---------------0-------|7---7-------7---3---3-------3---2---2-------2-------------------| 4x8---8-------8---5---5-------5---3---3-------3---2---2-------2---|------------------------------------------------3---3-------3---|
interlude
--------0---------------0---------------0---------------0-------|--0---0---0---0---0---0---0---0---0---0---0---0---0---0---0---0-|----------------------------------------------------------------|7---7-------7---3---3-------3---2---2-------2-------------------| 2x8---8-------8---5---5-------5---3---3-------3---2---2-------2---|------------------------------------------------3---3-------3---|
verse 2
----------------------------------------------------------------|--0---0---0---0---0---0---0---0---0---0---0---0---0---0---0---0-|--------0---------------0---------------0---------------0-------|7---7-------7---3---3-------3---2---2-------2---0---0-------0---| 2x8---8-------8---5---5-------5---3---3-------3-------------------|------------------------------------------------3---3-------3---|
chorus
------------------------0-----------------------------------------|--0---0---0---0---0---0---0---0---0---0---0---0---0---0---0---0---|--------0-------------------------------0---------------0---------|7---7-------7---3---3-------3---2---2-------2---0---0-------0-----|8---8-------8---5---5-------5---3---3-------3---2---2-------2-----|------------------------------------------------------------------|
--------0-------------------------------------------------------|--0---0---0---0---0---0---0---0---0---0---0---0---0---0---0---0-|------------------------0---------------0---------------0-------|7---7-------7---3---3-------3---2---2-------2---0---0-------0---|8---8-------8---5---5-------5---3---3-------3---2---2-------2---|----------------------------------------------------------------|
--------0-------------------------------------------------------|--0---0---0---0---0---0---0---0---0---0---0---0---0---0---0---0-|------------------------0-------4---4---0---4---4---4---0---4---| 2x7---7-------7---3---3-------3-----------------------------------|8---8-------8---5---5-------5-----------------------------------|----------------------------------------------------------------|
the chorus might end like this tho
--------0-------------------------------------------------------| --0---0---0---0---0---0---0---0---0---0---0---0---0---0---0---0-| ------------------------0-------4---4---0---4---4---4---0---4---| 7---7-------7---3---3-------3---2---2-------2---2---2-------2---| 2x 8---8-------8---5---5-------5---3---3-------3---3---3-------3---| ----------------------------------------------------------------|
verse 3
--------12--------------8---------------7---------------3-------|--0---0---0---0---0---0---0---0---0---0---0---0---0---0---0---0-|----------------------------------------------------------------|7---7-------7---3---3-------3---2---2-------2-------------------| 2x8---8-------8---5---5-------5---3---3-------3---2---2-------2---|------------------------------------------------3---3-------3---|
----------------------------------------------------------------|--0---0---0---0---0---0---0---0---0---0---0---0---0---0---0---0-|--------0---------------0---------------0---------------0-------|7---7-------7---3---3-------3---2---2-------2-------------------| 2x8---8-------8---5---5-------5---3---3-------3---2---2-------2---|------------------------------------------------3---3-------3---|
chorus
--------0---------------0---------------0---------------0-------|--0---0---0---0---0---0---0---0---0---0---0---0---0---0---0---0-|----------------------------------------------------------------|7---7-------7---3---3-------3---2---2-------2---0---0-------0---|8---8-------8---5---5-------5---3---3-------3---2---2-------2---|----------------------------------------------------------------|
------------------------0---------------0---------------0-------|--0---0---0---0---0---0---0---0---0---0---0---0---0---0---0---0-|--------0-------------------------------------------------------|7---7-------7---3---3-------3---2---2-------2---0---0-------0---|8---8-------8---5---5-------5---3---3-------3---2---2-------2---|----------------------------------------------------------------|
--------0-------------------------------------------------------|--0---0---0---0---0---0---0---0---0---0---0---0---0---0---0---0-|------------------------0-------4---4---0---4---4---4---0---4---|7---7-------7---3---3-------3-----------------------------------|8---8-------8---5---5-------5-----------------------------------|----------------------------------------------------------------|
--------0-------------------------------------------------------|--0---0---0---0---0---0---0---0---0---0---0---0---0---0-2---0---|------------------------0-------4---4---0---4---4---4-----4---0-|7---7-------7---3---3-------3-----------------------------------|8---8-------8---5---5-------5-----------------------------------|----------------------------------------------------------------|
the chorus might end like this tho
--------0-------------------------------------------------------| --0---0---0---0---0---0---0---0---0---0---0---0---0---0---0---0-| ------------------------0-------4---4---0---4---4---4---0---4---| 7---7-------7---3---3-------3---2---2-------2---2---2-------2---| 8---8-------8---5---5-------5---3---3-------3---3---3-------3---| ----------------------------------------------------------------|
--------0-------------------------------------------------------| --0---0---0---0---0---0---0---0---0---0---0---0---0---0-2---0---| ------------------------0-------4---4---0---4---4---4-----4---0-| 7---7-------7---3---3-------3---2---2-------2---2---2-----------| 8---8-------8---5---5-------5---3---3-------3---3---3-----------| ----------------------------------------------------------------|
--------------------------------| --0---0---0---0---0---0---0---0-| --------0---------------0-------| 7---7-------7---3---3-------3---| 8---8-------8---5---5-------5---| --------------------------------|
ok i haven't figured out the bridge yet, but i will be working on it. if anyone can it out, yay for you! and it would be nice if you could tell me how it goes :) ending
--------------------------------------------------------------|--0---0---0---0---0---0---0---0---0---0---0---0---0---0---0---|--------0---------------0---------------0---------------0-----|7---7-------7---3---3-------3---2---2-------2-----------------| 3x8---8-------8---5---5-------5---3---3-------3---2---2-------2-|------------------------------------------------3---3-------3-|
----------0-------------------0-|--------0-------------------0---|------0-------------------0-----|----3-------------------2-------|--3-------------------3---------|1-------------------0-----------|
Please rate this tab:
x1.0