The Sound Of Animals Fighting – The Heraldic Beak Of The Manufacturers tab

The Sound Of Animals Fighting: The Heraldic Beak Of The Manufacturers Medallion

Tabbed by Krallox

Standard Tuning

Intro:4x ----------------------------------------------------------------| -----------------2----------------------------------------------| --------3-------------------------1-------1---------------------| -----------1~4-----------443---------1-------1--------0---------| --------------------4-6------4-1--------2-------2--3------------| -----4----------------------------------------------------------|
4x ----------------------------------------------------------------| ---------0-------3-------331---0--1-----------------------------| --------------------2-4------0-------3--------------------------| -----------0h2--------------------------------------------------| -----0----------------------------------3-----------------------| ----------------------------------------------------------------|
4x ----------------------------------------------------------------| -----------------2----------------------------------------------| --------3-------------------------1-------1---------------------| -----------1~4-----------443---------1-------1--------0---------| --------------------4-6------4-1--------2-------2--3------------| -----4----------------------------------------------------------|
4x ----------------------------------------------------------------| ---------0-------3-------331---0--1-----------------------------| --------------------2-4------0-------3--------------------------| -----------0h2--------------------------------------------------| -----0----------------------------------3-----------------------| ----------------------------------------------------------------|
Chorus: --------------------------------------------2--------0h2--------| ------------------------------------------2--------0------------| ----------------------------------------2--------1--------------| -----4-4---4-4---4-4---4-4---x44------2--------2----------------| -----4-4---4-4---4-4---4-4---x44----0---------------------------| -----4-4---4-4---4-4---4-4---x44--------------------------------|
--------------------------------------------2-------------------| ------------------------------------------2--------0------------| ----------------------------------------2--------1---1----------| -----4-4---4-4---4-4---4-4---x44------2--------2----------------| -----4-4---4-4---4-4---4-4---x44----0---------------------------| -----4-4---4-4---4-4---4-4---x44--------------------------------|
--------------------------------------------2--------0h2--------| ------------------------------------------2--------0------------| ----------------------------------------2--------1--------------| -----4-4---4-4---4-4---4-4---x44------2--------2----------------| -----4-4---4-4---4-4---4-4---x44----0---------------------------| -----4-4---4-4---4-4---4-4---x44--------------------------------|
----------------------------------------------------------------| ----------------------------------------------------------------| ----------------------------------------------------------------| -----4-4---4-4---4-4---4-4---x44--------4-4---4-4---4-4---x44---| -----4-4---4-4---4-4---4-4---x44--------4-4---4-4---4-4---x44---| -----4-4---4-4---4-4---4-4---x44--------4-4---4-4---4-4---x44---|
--------------------------------------------2--------0h2--------| ------------------------------------------2--------0------------| ----------------------------------------2--------1--------------| -----4-4---4-4---4-4---4-4---x44------2--------2----------------| -----4-4---4-4---4-4---4-4---x44----0---------------------------| -----4-4---4-4---4-4---4-4---x44--------------------------------|
2x --------------------------------------------2---------4h0-------| ------------------------------------------2--------0------------| ----------------------------------------2--------1--------------| -----4-4---4-4---4-4---4-4---x44------2--------2----------------| -----4-4---4-4---4-4---4-4---x44----0---------------------------| -----4-4---4-4---4-4---4-4---x44--------------------------------|
----------------------------------------------------------------| ----------------------------------------------------------------| ----------------------------------------------------------------| -----4-4---4-4---4-4---4-4---x44--------------------------------| -----4-4---4-4---4-4---4-4---x44----0-0-0-0-0-0-0-0-------------| -----4-4---4-4---4-4---4-4---x44----0-0-0-0-0-0-0-0-------------|
4x ------------------------------------------------------------------------| ------------------------------------------------------------------------| ------------------------------------------------------------------------| ------------------------------------------------------------------------| -----4-4-4-4-4-4-4-444-2-2-2-2-2-2-2-222--------------------------------| -----------------------------------------4-4-4-4-4-444-4-4-4-4-4-444----|
(Part 2)
8x----------------------------------0-----------------------------| -----------0-----------2----4-----------------------------------| ---------1------1----1------------------------------------------| -------2-----------2----------2---------------------------------| ----4---------------------------4-------------------------------| ----------------------------------------------------------------|
----------------------------------------------------------------| ----------------------------------------------------------------| ----------------------------------------------------------------| ----------------------------------------------------------------| -----4-4-4-4-4-4-4-4-2-2-2-2-2-2-2-2-------------0-0-0-0-0-0-0--| -------------------------------------4-4-4-4-4-4----------------|
----------------------------------------------------------------| ------------------------------------------------------------2---| ----------------------------------------------------------------| ----------------------------------------------------------------| -----4-4-4-4-4-4-4-2-2-2-2-2------------------------------------| -----------------------------4-4-4-4-4-4-4-4--x-x-x-x-x-x-------|
--------------------------------------------2--------0----------| ------------------------------------------2--------0------------| ----------------------------------------2--------1--------------| -----4-4---4-4---4-4---4-4---x44------2--------2----------------| -----4-4---4-4---4-4---4-4---x44----0---------------------------| -----4-4---4-4---4-4---4-4---x44--------------------------------|
--------------------------------------------2-------------------| ------------------------------------------2--------0------------| ----------------------------------------2--------1---1----------| -----4-4---4-4---4-4---4-4---x44------2--------2----------------| -----4-4---4-4---4-4---4-4---x44----0---------------------------| -----4-4---4-4---4-4---4-4---x44--------------------------------|
--------------------------------------------2--------0-4h0------| ------------------------------------------2--------0------------| ----------------------------------------2--------1--------------| -----4-4---4-4---4-4---4-4---x44------2--------2----------------| -----4-4---4-4---4-4---4-4---x44----0---------------------------| -----4-4---4-4---4-4---4-4---x44--------------------------------|
----------------------------------------------------------------| ----------------------------------------------------------------| ----------------------------------------------------------------| -----4-4---4-4---4-4---4-4---x44----------------2-2-2-2-2-2-2-2-| -----4-4---4-4---4-4---4-4---x44----4-4---4-4---0-0-0-0-0-0-0-0-| -----4-4---4-4---4-4---4-4---x44----2-2---2-2---2-2-2-2-2-2-2-2-|
Mini Solo
-------------1h2-1--------------------------1h2-1-----2-1--6-2---1---| ---------2---------2------2-------2h4---2---------4------------------| -------3---3----------1h3---3-1h3-----3---3--------------------3-----| ---------------------------------------------------------------------| ---------------------------------------------------------------------| ---------------------------------------------------------------------|
There's a hidden second guitar in this riff if you can't hear it... ;D
3x-------------1h2-1--------------------------1h2-1-----2-1--6-2---1---| ---------2---------2------2-------2h4---2---------4------------------| -------3---3----------1h3---3-1h3-----3---3--------------------3-----| ---------------------------------------------------------------------| ---------------------------------------------------------------------| --12~0---------------------------------------------------------------|
-------------1h2-1--------------------------1h2-1-----2-1--6-1-----| ---------2---------2------2-------2h4---2---------4----------------| -------3---3----------1h3---3-1h3-----3---3------------------------| -------------------------------------------------------------------| -------------------------------------------------------------------| --12~0-------------------------------------------------------------|
I'm not to sure about these chords below, but they will give you an idea of what they like. If you can make a better sounding chord than these, go ahead and improvise. On the third chord, do your best to refrain from striking the high E.
2x---2-2--2-2--2-2--2-2--2-2-2----1-1--1--------------------------------1-1--1--| ---0-0--0-0--0-0--0-0--0-0-0----3-3--3----4-4--4-4--4-4--4-4--4-4-4---1-1--1--| ---0-0--0-0--0-0--0-0--0-0-0----2-2--2----4-4--4-4--4-4--4-4--4-4-4---2-2--2--| ---2-2--2-2--2-2--2-2--2-2-2----0-0--0----4-4--4-4--4-4--4-4--4-4-4---3-3--3--| ---2-2--2-2--2-2--2-2--2-2-2----4-4--4----6-6--6-6--6-6--6-6--6-6-6---0-0--0--| ---0-0--0-0--0-0--0-0--0-0-0----0-0--0----0-0--0-0--0-0--0-0--0-0-0---0-0--0--|
---------------------------------------| ---------------------------------------| ---3--------3--------3--------3--------| ---3--3-3-3-3--3h4-3-3--3-3-3-3--3h4-3-| ---4--------4--------4--------4--------| ---------------------------------------|
4x---2-1-----2-1--------| -4----2--4----4--2--4-| ----------------------| ----------------------| ----------------------| ----------------------|
---6--4-2-1-2- 3x---6--4-4-1-2--6--4-1--2--| -7------------ --------------------------| -------------- --------------------------| -------------- --------------------------| -------------- --------------------------| -------------- --------------------------|
---6--4-4-1-2--6--2~1------2--6--2-----| -------------------------------------2-| ---------------------------------------| ---------------------------------------| ---------------------------------------| ---------------------------------------|
--------------------------------------------2--------0h2--------| ------------------------------------------2--------0------------| ----------------------------------------2--------1--------------| -----4-4---4-4---4-4---4-4---x44------2--------2----------------| -----4-4---4-4---4-4---4-4---x44----0---------------------------| -----4-4---4-4---4-4---4-4---x44--------------------------------|
--------------------------------------------2-------------------| ------------------------------------------2--------0------------| ----------------------------------------2--------1---1----------| -----4-4---4-4---4-4---4-4---x44------2--------2----------------| -----4-4---4-4---4-4---4-4---x44----0---------------------------| -----4-4---4-4---4-4---4-4---x44--------------------------------|
----------------------------------------------------------------| ----------------------------------------------------------------| ----------------------------------------------------------------| -----4-4---4-4---4-4---4-4---x44--------4-4---4-4---4-4---x44---| -----4-4---4-4---4-4---4-4---x44--------4-4---4-4---4-4---x44---| -----4-4---4-4---4-4---4-4---x44--------4-4---4-4---4-4---x44---|
----------------------------------------------------------------| ----------------------------------------------------------------| ----------------------------------------------------------------| ----------------------------------------------------------------| ----------------------------------------------------------------| ----0-0-0-0-0-0-0-2-2-2-2-2-2-2-3-3-3-3-3-3-3-4-4-4-4-4-4-4-----|
4x ------------------------------------------------------------------------| ------------------------------------------------------------------------| ------------------------------------------------------------------------| ------------------------------------------------------------------------| -----4-4-4-4-4-4-4-444-2-2-2-2-2-2-2-222--------------------------------| -----------------------------------------4-4-4-4-4-444-4-4-4-4-4-444----|
The rest is bass picking and other music. If there are any mistakes please notify me so can fix it. :D
Please rate this tab:
x1.0