The Sword - The Sundering tab

		     The Sundering

Email: steveman1236@gmail.com
Tabbed by: Stephen Earnest

Intro (clean) 
Guitar 1 
Play 4x

|------------------------------------------------------------||------------------------------------------------------------||---9-----9-----9-----9--------12----------12-------7-----7--||-9---9-9---9-9---9-9---9--12------12--12------12-7---7-7---7||7-7-7-7-7-7-7-7-7-7-7-7-10--10--10--10--10--10--5-5-5-5-5-5-||------------------------------------------------------------|
Guitar 2 (comes in on second time)
|--------------------------------------------------------||--------------------------------------------------------||7h9---------------------12----------------------14-14b--||--------------------------------------------------------||--------------------------------------------------------||--------------------------------------------------------|
|------------------------------------------------------||------------------------------------------------------||9----------------------7----------7--------------7h9--||-----------------------------------------------------9||------------------------------------------------------||------------------------------------------------------|
|-----------------||-----------------||7-------7-----7h9||-----------------||-----------------||-----------------|
Guitar 1
|-----------------------------------------------------||-----------------------------------------------------||-----------------------------------------------------||-----------------------------------------------------||-----------------------------------------------------||0-000-0-000-0-000-0-000-0-000-0-000-0-000-0-000-0-000| * *** * *** * *** * *** * *** * *** * *** * *** * ***
|------------------------------||------------------------------||------------------------------||------------------------------||11-13-11-10-11-10-8-10-8-7-8-7||------------------------------|
Verse 1 Play 4x
|-------------------------------------------||-------------------------------------------||-------------------------------------------||10/9---9---9------7-9----------------------||-8/7---7---7----8-5-7---7---10h11p10-8h10p8||----000-000-000-6----000-000---------------| *** *** *** *** ***
Chorus Play 4x
|------------------||------------------||------------------||10/9-7-9-10--9----||-8/7-5-7--8--7-8-8||---------------6-6| * * *
Verse 2 Guitar 1 Play 4x
|--------------------------------------||--------------------------------------||--------------------------------------||--------------------------------------||10/9-----------7-9-10-9---------------||-8/7---7---7---5-7--8-7---7---7---7---||----000-000-000--------000-000-000-000| *** *** *** *** *** *** ***
|------------------------------------||------------------------------------||------------------------------------||------------------------------------||10---10---10---10---5---5---5---5---||--000--000--000--000-000-000-000-000| *** *** *** *** *** *** *** ***
Solo Part 1 Guitar 2
|-----------------||-----------------||12~-----11~------||-----------------||-----------------||-----------------|
|--------------------------------------||--------------------------------------||--12--12-14-12-15h12--12-14-12-15h12--||14--14--------------14----------------||--------------------------------------||--------------------------------------|
|-------------------------------------------------||-------------12--12-15-12-15b16-15b16~-15b16h12--||--12-14-12-14--14--------------------------------||14-----------------------------------------------||-------------------------------------------------||-------------------------------------------------|
|---------------------------------||--12-----------------------------||14--14-12-14b15-14b15-12h14p12~--||---------------------------------||---------------------------------||---------------------------------|
Solo Part 2 Play 2x
|----12-------12-------12-------12---||-12----12-12----12-12----12-12----12||9--9--9--9--9--9--9--9--9--9--9--9--||------------------------------------||------------------------------------||------------------------------------|
|------15----------15--------10-------10---||--15------15--15------15-10----10-10----10||12--12--12--12--12--12--7--7--7--7--7--7--||------------------------------------------||------------------------------------------||------------------------------------------|
Outro 1 Play 4x
|-------------------------------------------||-------------------------------------------||-------------------------------------------||10/9---9---9------7-9----------------------||-8/7---7---7----8-5-7---7---10h11p10-8h10p8||----000-000-000-6----000-000---------------| *** *** *** *** ***
Outro 2
|------------------||------------------||------------------||10/9-7-9-10--9----||-8/7-5-7--8--7-8-8||---------------6-6| * * *
And thats it!
Tap to rate this tab
 
# A B C D E F G H I J K L M N O P Q R S T U V W X Y Z