The Sword - The White Sea tab version 2

this is Steveman's tab, tuned down 2 steps (C F A# D# G C) with a few minor 
changes. should be 99% accurate

0:00-0:54|----------------------------------------------||----------------------------------------------||-9-9---9-----9-----9----9-9---9-----9-----9---||10p9---9-----9-----9---10p9---9-----9-----9---||-7-7-7-7-7-7-7-7-7-7-7--7-7-7-7-7-7-7-7-7-7-7-||----------------------------------------------|
|--------------------------------------------------------||8-8---8-----8-------8-------8-8---8-----8-------8-------||7-7---7-----7h9p7---7h9p7---7-7---7-----7h9p7---7h9p7---||5-5-5-5-5-5-5-----5-5-----5-5-5-5-5-5-5-5-----7-5----5--||--------------------------------------------------------||--------------------------------------------------------|
0:07-0:23Clean Solo |-10-10h12----10-10---------------------10/12-10---------------------||-------------------13-12---13-12-10--8----------13p12h13-10-12/13---||--------------------------------------------------------------------||--------------------------------------------------------------------||--------------------------------------------------------------------||--------------------------------------------------------------------|
|10-12-13-10h12p10-10-10h12p10-10-10h12p10-10-10h12p10---||--------------------------------------------------------||--------------------------------------------------------||--------------------------------------------------------||--------------------------------------------------------||--------------------------------------------------------|
0:23-0:39Distorted Solo |15p12-15-15p12-15-15p12-15-15p12-15-15p12-15-15p12-15-15p12-15-15p12---||-----------------------------------------------------------------------||-----------------------------------------------------------------------||-----------------------------------------------------------------------||-----------------------------------------------------------------------||-----------------------------------------------------------------------|
|10-10h12-10-------------------------------------10--------10-------------------||------------13-12-10-8/10-10/12-10-10p8----10h12-----10/12--12p10-8-10-8h10-8--||---------------------------------------9---------------------------------------||-------------------------------------------------------------------------------||-------------------------------------------------------------------------------||-------------------------------------------------------------------------------|
|------------17-19-17---||15-17-19-20------------||-----------------------||-----------------------||-----------------------||-----------------------|
0:39Lead Fill |----------------------------------------------------------------------||----------------------------------------------------------------------||----9-------9/10-7-7/10-7---7/10-7-7/10-9-9h10p9----9/10-7-7/10-7-7---||----------------------------------------------------------------------||-7--------------------------------------------------------------------||----------------------------------------------------------------------|
|----------------||----------------||----------------||10--9--12-------||10--9--12-------||8---7--10-------|
0:54-1:10 (palm mute the 6th string throughout)|---------------------------------------------------||---------------------------------------------------||---------------------------------------------------||------------7/9-9---10\9-----------9---10---12-----||------------5/7-7----8\7-----------7----8---10-----||0-000-0-0-0-------0------000-0-0-0---0----0--------|
|--------------------------------------------||--------------------------------------------||--------------------------------------------||9----9----7/9-9/10-999-101010-121212-12/14--||7----7----5/7-7/-8--------------------------||--00---00-----------------------------------|
|--------------------------------------------------||--------------------------------------------------||--------------------------------------------------||------------7/9-9---10\9-----------14---12--10\9--||------------5/7-7----8\7-----------12---10---8\7--||0-000-0-0-0-------0------000-0-0-0----0----0------|
|-----------------------------------||-----------------------------------||-----------------------------------||9----9----7/9----------------------||7----7----5/7----------------888---||--00---00-----555-101010-999-------|
1:10-1:26 (play 2x) (PM 6th string)|---------------------------------------------------------------------------||---------------------------------------------------------------------------||---------------------------------------------------------------------------||------9--9-----9-7-5----5--5-----5-9-7----7--7-----7-10-9----9--9-----9-7--||------7--7-----7-5-3----3--3-----3-7-5----5--5-----5--8-7----7--7-----7-5--||0-0-0------000-------00------000-------00------000--------00------000------|
Lead (play 2nd time)|---------------------------------------------------------||------------------------------------------------10h12-10-||9--9/11-14-12--12/14-16-14--14\12-14/16-----9h12---------||---------------------------------------------------------||7--7/-9-12-10--10/12-14-12--12\10-12/14------------------||---------------------------------------------------------|
1:26-1:41 (PM 6th string)|---------------------------------------------------||---------------------------------------------------||---------------------------------------------------||------------7/9-9---10\9-----------9---10---12-----||------------5/7-7----8\7-----------7----8---10-----||0-000-0-0-0-------0------000-0-0-0---0----0--------|
|--------------------------------------------||--------------------------------------------||--------------------------------------------||9----9----7/9-9/10-999-101010-121212-12/14--||7----7----5/7-7/-8--------------------------||--00---00-----------------------------------|
|--------------------------------------------------||--------------------------------------------------||--------------------------------------------------||------------7/9-9---10\9-----------14---12--10\9--||------------5/7-7----8\7-----------12---10---8\7--||0-000-0-0-0-------0------000-0-0-0----0----0------|
|-----------------------------------||-----------------------------------||-----------------------------------||9----9----7/9----------------------||7----7----5/7----------------888---||--00---00-----555-101010-999-------|
1:41-1:57 (play 2x)|--------------------------------------------------------------------------||--------------------------------------------------------------------------||--------------------------------------------------------------------------||--9---9---9---9---7---5---5---5---5---9---7---7---7---7--10---9---9---9--7||7---7---7---7---7---3---3---3---3---3---5---5---5---5---5---7---7---7----5||--------------------------------------------------------------------------|
1:57-2:12|---------------------------------------------------------------------------||---------------------------------------------------------------------------||9~----------7------9~------7----12-12-12-11-9~-------7----9~-----7---------||9~----------7------9~------7----12-12-12-11-9~-------7----9~-----7---9-9-9-||7~----------5------7~------5----10-10-10--9-7~-------5----7~-----5---9-9-9-||---------------------------------------------------------------------7-7-7-|
2:12-2:28|---------------------------------------------------------------------||---------------------------------------------------------------------||---------------------------------------------------------------------||7-7-77777-101010-9-9-99999-555-7-7-77777-101010-9-9-99101010-121212--||7-7-77777-101010-9-9-99999-555-7-7-77777-101010-9-9-99101010-121212--||5-5-55555--8-8-8-7-7-77777-333-5-5-55555--8-8-8-7-7-77-8-8-8-101010--|
|--------------------------------------------------------||--------------------------------------------------------||--------------------------------------------------------||7-7-77777-101010-9-9-99999-555-7-7-77777-101010-9-7-5-4-||7-7-77777-101010-9-9-99999-555-7-7-77777-101010-9-7-5-4-||5-5-55555--8-8-8-7-7-77777-333-5-5-55555--8-8-8-7-5-3-2-|
2:28-3:32 (play entire riff 2x)|--------------------------------------------||--------------------------------------------||--------------------------------------------||--------------------------------------------| |--------------------------------------------| |0--------------0------------0-------------0-|
|-------------------------| |-------------------------| |9----7-9----7-9----7-9---| |9----7-9----7-9----7-9---||7----5-7----5-7----5-7---| |-------------------------|
|---------------------------------------------------------| |---------------------------------------------------------| |7-9-10--10--10--9-7-9-7---7--7--10-7-10-9--9--10-7-10-9--| |7-9-10--10--10--9-7-9-7---7--7--10-7-10-9--9--10-7-10-9--||5-7--8---8---8--7-5-7-5---5--5---8-5--8-7--7---8-5--8-7--| |---------------------------------------------0-----------|
3:33-4:20|--------------------------------------------------------------------------||--------------------------------------------------------------------------||--------------------------------------------------------------------------||--------------------------------------------------------------------------||---7~-5h7-5~-5-7-8~---7~5h7-5~-5-7-8~---7~5h7-5~-5-7-8~--7~-5h7-5~--5-----||0~-----------------0~----------------0~----------------0~---------5---5p3-|
Harmony|----------------------------------------------------------------------------||----------------------------------------------------------------------------||----------------------------------------------------------------------------||--9~-7h9-7~-7-9-10~--9~-7h9-7~-7-9-10~--9~-7h9-7~-7-9-10~--9~7h9-7~---------||---------------------------------------------------------------------5------||0------------------0------------------0------------------0---------5---5p3--|
played over solo (4:20-4:35)|---------------------------------------------------------------------||---------------------------------------------------------------------||---------------------------------------------------------------------||7-7-77777-101010-9-9-99999-555-7-7-77777-101010-9-9-99101010-121212--||7-7-77777-101010-9-9-99999-555-7-7-77777-101010-9-9-99101010-121212--||5-5-55555--8-8-8-7-7-77777-333-5-5-55555--8-8-8-7-7-77-8-8-8-101010--|
|--------------------------------------------------------||--------------------------------------------------------||--------------------------------------------------------||7-7-77777-101010-9-9-99999-555-7-7-77777-101010-9-7-5-4-||7-7-77777-101010-9-9-99999-555-7-7-77777-101010-9-7-5-4-||5-5-55555--8-8-8-7-7-77777-333-5-5-55555--8-8-8-7-5-3-2-|
4:35-4:49|---------------------------------------------------------------------------||---------------------------------------------------------------------------||9~----------7------9~------7----12-12-12-11-9~-------7----9~-----7---------||9~----------7------9~------7----12-12-12-11-9~-------7----9~-----7---9-9-9-||7~----------5------7~------5----10-10-10--9-7~-------5----7~-----5---9-9-9-||---------------------------------------------------------------------7-7-7-|
4:50-5:05|-------------------------------------------------------------------------||-------------------------------------------------------------------------||9-9-----9-9-----9-9-----7-7-------9-9-----9-9-----7-7-------12-12-12\9-7-||9-9-----9-9-----9-9-----7-7-------9-9-----9-9-----7-7-------12-12-12\9-7-||7-7-2-3-7-7-2-3-7-7-2-3-5-5-5-3-2-7-7-2-3-7-7-2-3-5-5-5-3-2-10-10-10\7-5-||-------------------------------------------------------------------------|
5:05-5:20|--------------------------------------------------------------------------||--------------------------------------------------------------------------||--------------------------------------------------------------------------||--9---9---9---9---7---5---5---5---5---9---7---7---7---7--10---9---9---9--7||7---7---7---7---7---3---3---3---3---3---5---5---5---5---5---7---7---7----5||--------------------------------------------------------------------------|
5:20-6:04|-------------------------------------------||-------------------------------------------||9-9------------------7-7-------------------||9-9------------5-----7-7-------------------||7-7--3-5-7-777---7-5-5-5--2-3-5-555-8-7-5--||-------------------------------------------|
6:04-6:27 End on |---------------------| |-----||---------------------| |-----||-------------7-9-10--| |-----||2--------2---7-9-10--| |-2~~-||2--------2---5-7--8--| |-2~~-||0--------0-----------| |-0~~-|
enjoy! sorry I don't have the last solo
Tap to rate this tab
 
# A B C D E F G H I J K L M N O P Q R S T U V W X Y Z