The Wedding Present - Dont Touch That Dial tab


THE WEDDING PRESENT
Don't touch that dial

Talitres
2/2005

From the LP "Take Fountain"


The song is simple & ludic to play. Only one guitar is playing here. 


The LP is very nice as well. 


Intro + verse


||-----------------------------|||-----------------------------|||-----------------------------|||------11-------13--11--------|||----9----9---9--------9------|||--9--------9-----------------|||-----------------------------|
||-----------------------------|||-----------------------------|||-----------------------------|||------11-------13--11--------|||----9----9---9--------9------|||--9--------9-----------------|||-----------------------------|
||-----------------------------|||-----------------------------|||-----------------------------|||------8--------9--8----------|||----6----6---6-------6-------|||--6--------6-----------------|||-----------------------------|
||-----------------------------|||-----------------------------|||-----------------------------|||------8--------9--8----------|||----6----6---6-------6-------|||--6--------6-----------------|||-----------------------------|
||-----------------------------|||-----------------------------|||-----------------------------|||---------9---------11--9-----|||------9-----9----9--------9--|||--/11---------11-------------|||-----------------------------|
||-----------------------------|||-----------------------------|||-----------------------------|||---------9---------11--9-----|||------9-----9----9--------9--|||--/11---------11-------------|||-----------------------------|
||-----------------------------|||-----------------------------|||-----------------------------|||------9-------11--9----------|||----9---9---9--------9-------|||--7-------7------------------|||-----------------------------|
||-----------------------------|||-----------------------------|||-----------------------------|||------9-------11--9----------|||----9---9---9--------9-------|||--7-------7------------------|||-----------------------------|
Chorus : (loud disto) All the notes dont have the same lenth, chez the song to know.
||---------------------------------------|||---------------------------------------|||---------------------------------------|||---------------------------------------|||--12-11-15-13-8-13-11-9-8-4-12-11-9-4--|||--X--X--X--X--X-X--X--X-X-X-X--X--X-X--|||--14-9--13-11-6-11-9--7-6-2-10-9--7-2--|
Then thers's the verse and the solo again, ent it ends.
Tap to rate this tab
 
# A B C D E F G H I J K L M N O P Q R S T U V W X Y Z