The Xx - Intro tab

Intro by The XX
Tabbed By: D
Tuning: Std.

|-----------------------------------------||---------------3(x12)-5(x6)-3-3-3--------||-2(x18)-5(x12)--------------------5-5-2--||-----------------------------------------||-----------------------------------------||-----------------------------------------|
|-----------------------------------------||---------------3(x12)-5(x6)-3-3-3--------||-2(x12)-5(x12)--------------------5-5-2--||-----------------------------------------||-----------------------------------------||-----------------------------------------|
|---------------------------------||---------3-3------------3-3------||-2-2-5-5-----5-5--2-5-5-----5-5--||---------------------------------||---------------------------------||---------------------------------|
|------------------------------------||---------5-5-----3-3-----5-5--------||-2-2-5-5-----5-5-----5-5-----5-5\2--||------------------------------------||------------------------------------||------------------------------------|
|-----------------------------||-----3-3------------3-3------||-5-5-----5-5--2-5-5-----5-5--||-----------------------------||-----------------------------||-----------------------------|
|----------------------------------||---------5-5-----3-3-----5-5------||-2-2-5-5-----5-5-----5-5-----5-5--||----------------------------------||----------------------------------||----------------------------------|
|-----------------------------------------||---------------3(x12)-5(x6)-3-3-3--------||-2(x12)-5(x12)--------------------5-5-2--||-----------------------------------------||-----------------------------------------||-----------------------------------------|
|---------------------------------||---------3-3------------3-3------||-2-2-5-5-----5-5--2-5-5-----5-5--||---------------------------------||---------------------------------||---------------------------------|
|----------------------------------||---------5-5-----3-3-----5-5------||-2-2-5-5-----5-5-----5-5-----5-5--||----------------------------------||----------------------------------||----------------------------------|
|-------------------------------||-------3-3------------3-3------||-2-5-5-----5-5--2-5-5-----5-5--||-------------------------------||-------------------------------||-------------------------------|
|---------------------------------||---------5-5-----3-3-----5-5-----||-2-2-5-5-----5-5-----5-5-----5-5-||---------------------------------||---------------------------------||---------------------------------|
|------------------------------------||------------------------------------||-2---2/5--7-9-5----5/7-12-7/9-5-----||------------------------------------||------------------------------------||------------------------------------|
Tap to rate this tab
 
# A B C D E F G H I J K L M N O P Q R S T U V W X Y Z