Therion - Dawn Of Perishness tab

Therion is an amazing band who is under appreciated. this a good song and i hope you 
the tab. credits go to Max <>

Artist: Therion
Song Title: Dawn of Perishness
Album: Ho Drakon Ho Megas


Intro

|-----------------------------||-----------------------------||---5-5--5--------3-3--3------||---3-3--3--------1-1--1------||-5--------6-6--6--------5-5--||-3--------4-4--4--------3-3--|
|-----------------------------------------||-----------------------------------------||---5-5-5-5-5-----------3-3-3-3-3---------||---3-3-3-3-3-----------1-1-1-1-1---------||-5-----------6-6-6-6-6-----------5-5-5-5-||-3-----------4-4-4-4-4-----------3-3-3-3-|
Guitar II comes in here with this
|-----------------------------||-----------------------------||-----------------------------||---5-5--5--------3-3--3------||-5--------6-6--6--------5-5--||-----------------------------|
|-----------------------------------------||---8-8-8-8-8-----------6-6-6-6-6---------||-7-----------8-8-8-8-8-----------7-7-7-7-||---5-5-5-5-5-----------3-3-3-3-3---------||-5-----------6-6-6-6-6-----------5-5-5-5-||-----------------------------------------|
riff melody
|---------------------------------------------------------------||-10--12--13--12--10~------10--12--13--12--10~------------------||---------------------------------------------------------------||---------------------------------------------------------------||---------------------------------------------------------------||---------------------------------------------------------------|
Verse riff 1
|---------------------------------------------------------------||---------------------------------------------------------------||---------------------------------------------------------------||-----7-----9-----10----9-----7------7-----9-----10----9-----7--||-0-0-0-0-0-0-0-0-0-0-0-0-0-0-0--0-0-0-0-0-0-0-0-0-0-0-0-0-0-0--||---------------------------------------------------------------|
|---------------------------------------------------------------||---------------------------------------------------------------||---------------------------------------------------------------||-----7-----9-----10----9-----7------7-----9-----10----9-----7--||-8-8-8-8-8-8-8-8-8-8-8-8-8-8-8--8-8-8-8-8-8-8-8-8-8-8-8-8-8-8--||---------------------------------------------------------------|
Chorus
|-----------------------||-----------------------||-----------------------||-9--10-9--7-7-7-7/9-9--||-7--8--7--5-5-5-5/7-7--||-----------------------|
Verse riff 2
|---------------------------------------------------------------||---------------------------------------------------------------||---------------------------------------------------------------||---------------------------------------------------------------||-7-7-7-7-5-7-10-9-7-5--7-7-7-7-5-7-10-9-7-5--------------------||-5-5-5-5-3-5-8--7-5-3--5-5-5-5-3-5-8--7-5-3--------------------|
|---------------------------------------------------------------||---------------------------------------------------------------||---------------------------------------------------------------||---------------------------------------------------------------||-3-3-3-3-2-3-5-3-3-3--3--3-3-3-3-2-3-5-3-3-3-------------------||-1-1-1-1-0-1-3-1-1-1--1--1-1-1-1-0-1-3-1-1-1-------------------|
2:09 - 2:27
|---------------------------------------------------------------||---------------------------------------------------------------||-------------------------------------------------5/7-7/8-8\7-5-||-5-5-5-5-5-5-5-5-5-5-5-5-5-5-5-5-5-5-5-5-5-5-5-5---------------||-7-7-7-7-7-7-7-7-3-3-3-3-3-3-3-3-7-7-7-7-7-7-7-7-3/5-5/6-6\5-3-||---------------------------------------------------------------|
2:28 - 2:44
|--------------------------------||--------------------------------||-4---4---3---3---2---2----------||-6---6---1---1---4---4---6---6--||-------------------------4---4--||--------------------------------|
2:45 - 2:59
|------------------------------------------------------------------||------------------------------------------------------------------||--8-8-8-8-8-8-8-8-3-3-3-3-3-3-3-3-6-6-6-6-6-6-6-6-6-6-6-6-6-6-6-6-||-6-6-6-6-6-6-6-6-1-1-1-1-1-1-1-1-4-4-4-4-4-4-4-4------------------||-------------------------------------------------4-4-4-4-4-4-4-4--||------------------------------------------------------------------|
Guitar part under solo
|--------------------------------------------||--------------------------------------------||--------------------------------------------||-4-4-4-4-4-4-4-4-2-2-2-2-2-2-2-2------------||-2-2-2-2-2-2-2-2-0-0-0-0-0-0-0-0------------||--------------------------------------------|
Interlude
|------------------------------------------------------------------||-12-14-15-14--12-14-15-14--14-15-17-15--14-15-17-15---------------||------------------------------------------------------------------||------------------------------------------------------------------||------------------------------------------------------------------||------------------------------------------------------------------|
Guitar I plays after solo
|------------------------------------------------------------------||------------------------------------------------------------------||------------------------------------------------------------------||-7-7-10p7--7-7-10p7-----------------------------------------------||---------------------7-7-10p7--7-7-10p7---------------------------||------------------------------------------------------------------|
Guitar II plays after Guitar I finishes
|------------------------------------------------------------------||------------------------------------------------------------------||-9-9-10p9--9-9-10p9-----------------------------------------------||---------------------9-9-10p9--9-9-10p9---------------------------||------------------------------------------------------------------||------------------------------------------------------------------|
And then
|------------------------------------------------------------------||------------------------------------------------------------------||------------------------------------------------------------------||------------------------------------------------------------------||-5-5-2-2-2-2-2-2-5-5-2-2-2-2-2-2-2-2-2-2-2-2----------------------||-3-3-0-0-0-0-0-0-3-3-0-0-0-0-0-0-0-0-0-0-0-0----------------------|
|-----------------------------------------------------------------------||-----------------------------------------------------------------------||-----------------------------------------------------------------------||-7-5-2-2-2-2-2-2--7-5-2-2-2-5------7-5-2-2-2-2-2-2--7-5-2-2-2-5--------||-5-3-0-0-0-0-0-0--5-3-0-0-0-3-5-5--5-3-0-0-0-0-0-0--5-3-0-0-0-3-5-5----||------------------------------3-3-------------------------------3-3----|
|-----------------------------------------------------------------------||-----------------------------------------------------------------------||-----------------------------------------------------------------------||-7-5-4-4-4-4-4-4--7-5-4-4-4-5-2-2--7-5-4-4-4-4-4-4--7-5-4-4-4-5-2-2----||-5-3-2-2-2-2-2-2--5-3-2-2-2-3-0-0--5-3-2-2-2-2-2-2--5-3-2-2-2-3-0-0----||-----------------------------------------------------------------------|
Ending riff (bend chords with ^ )
|-----------------------------------------------------------------------||-----------------------------------------------------------------------||-----------------------------------------------------------------------||---------------------------^-^-^----------------------------^-^-^------||-2-2-2-2-2-2-2-2-2-2-2-2-5-5-5-5--2-2-2-2-2-2-2-2-2-2-2-2-5-5-5-5------||-0-0-0-0-0-0-0-0-0-0-0-0-3-3-3-3--0-0-0-0-0-0-0-0-0-0-0-0-3-3-3-3------|
|--------------------------3h4p3-1--------------------------------------||-----------------------------------------------------------------------||-----------------------------------------------------------------------||-----------------------------------------------------------------------||-2-2-2-2-2-2-2-2-3-3-3-3-----------------------------------------------||-0-0-0-0-0-0-0-0-1-1-1-1-----------------------------------------------|
Tap to rate this tab
 
# A B C D E F G H I J K L M N O P Q R S T U V W X Y Z