Therion - The Rise Of Sodom And Gomorrah tab

                       The Rise Of Sodom And Gommorrah
Tabbed by : KHALID
E-mail: khassanain@hotmail.com  (or) Slash_88@hotmail.com

|-------|------|------|-------||-----------------------|------------------||-------|------|------|-------||-----------------------|------------------||*------|------|------|------*||-----------------------|------------------||*------|------|------|------*||--2--------------------|------------------||-------|------|------|-------||--2--------------------|------------------||-------|------|------|-------||--0--------------------|------------------|
|-----------------------------|----------------------------||-----------------------------|----------------------------||*----------------------------|----------------------------||*----------------------------|----------------------------||---2--0----------------------|--2--0----------------------||---------4--1--0--0-0-0--0-0-|--------4--1--0--0-0-0--0-0-|
3x----------------------------|-------------------------------||----------------------------|-------------------------------||----------------------------|------------------------------*||----------------------------|------------------------------*||--2--0----------------------|-------------------------------||--------4--1--0--0-0-0--0-0-|--1--1-1-1--1-1-1--1-1-1--1-1--||
------------------------------|------------------------------|------------------------------|------------------------------|------------------------------|------------------------------|------------------------------|------------------------------|------------------------------|------------------------------|--4--4-4-4--4-4-4--4-4-4--4-4-|--1--1-1-1--1-1-1--1-1-1--1-1-|
------------------------------|------------------------------|------------------------------|------------------------------|------------------------------|------------------------------|------------------------------|------------------------------|------------------------------|----------------2--2-2-0--0-0-|--0--0-0-0--0-0-0--0-0-0--0-0-|--1--1-1-1--1-1---------------|
------------------------------|------------------------------|------------------------------|------------------------------|------------------------------|------------------------------|------------------------------|------------------------------|------------------------------|------------------------------|--4--4-4-4--4-4-4--4-4-4--4-4-|--1--1-1-1--1-1-1--1-1-1--1-1-|
------------------------------|------------------------------|------------------------------|------------------------------|------------------------------|------------------------------|------------------------------|------------------------------|------------------------------|----------------0--0-0-2--2-2-|--0--0-0-0--0-0-0--0-0-0--0-0-|--1--1-1-1--1-1---------------|
|---------------------------------|--------------------------------||---------------------------------|--------------------------------||*--------------------------------|--------------------------------||*--------------------------------|--------------------------------||---------------7-5-7-5-7-5-7-5---|--------------7-5-7-5-7-5-7-5---||---7--7-7-7--7-----------------8-|--7--7-7-7--7-----------------8-|
---------------------------------|----------------------------------|---------------------------------|----------------------------------|---------------------------------|---------------------------------*|---------------------------------|---------------------------------*|---------------8-7-8-7-8-7-8-7-5-|---------------8-7-8-7-8-7-8-7-5--|--8-8-8-8-8--8-------------------|--5-5-5-5-5--5--------------------|
|---------------------|--------------------||---------------------|--------------------||---------------------|--4r-----2~---------||----------------2----|--------------------||--0------3-----------|--------------------||---------------------|--------------------|
---------------------|--------------------|---------------------|---------------------|--------------------|---------------------|---------------------|--4r-----2~---------|---------------------|----------------2----|--------------------|----------------7----|--0------3-----------|--------------------|--5------8-----------|---------------------|--------------------|---------------------|
--------------------|---------------------|--------------------|--------------------|---------------------|--------------------|--9r-----7~---------|---------------------|--9r-----7~---------|--------------------|----------------7----|--------------------|--------------------|--5------8-----------|--------------------|--------------------|---------------------|--------------------|
---------------------|--------------------|---------------------|---------------------|--------------------|---------------------|---------------------|--4r-----2~---------|---------------------|----------------2----|--------------------|----------------2----|--0------3-----------|--------------------|--0------3-----------|---------------------|--------------------|---------------------|
--------------------|---------------------|---------------------|--------------------|---------------------|---------------------|--4r-----2~---------|---------------------|---------------------|--------------------|--9------7------6----|---------------------|--------------------|---------------------|--8------7------5----|--------------------|---------------------|---------------------|
---------------------|---------------------||-----------------------------|---------------------|---------------------||-----------------------------|---------------------|---------------------||*----------------------------|--9------7------6----|---------------------||*----------------------------|---------------------|--8------7------5----||---2--0----------------------|---------------------|---------------------||---------4--1--0--0-0-0--0-0-|
----------------------------|----------------------------|----------------------------|----------------------------|----------------------------|----------------------------|----------------------------|----------------------------|--2--0----------------------|--2--0----------------------|--------4--1--0--0-0-0--0-0-|--------4--1--0--0-0-0--0-0-|
3x -------------------------------||------------------------------|-------------------------------||------------------------------|------------------------------*||------------------------------|------------------------------*||------------------------------|-------------------------------||------------------------------|--1--1-1-1--1-1-1--1-1-1--1-1--||--4--4-4-4--4-4-4--4-4-4--4-4-|
------------------------------|------------------------------|------------------------------|------------------------------|------------------------------|------------------------------|------------------------------|------------------------------|------------------------------|------------------------------|--1--1-1-1--1-1-1--1-1-1--1-1-|--0--0-0-0--0-0-0--0-0-0--0-0-|
------------------------------|------------------------------|------------------------------|------------------------------|------------------------------|------------------------------|------------------------------|------------------------------|----------------2--2-2-0--0-0-|------------------------------|--1--1-1-1--1-1---------------|--4--4-4-4--4-4-4--4-4-4--4-4-|
------------------------------|------------------------------|------------------------------|------------------------------|------------------------------|------------------------------|------------------------------|------------------------------|------------------------------|------------------------------|--1--1-1-1--1-1-1--1-1-1--1-1-|--0--0-0-0--0-0-0--0-0-0--0-0-|
------------------------------||---------------------------------|------------------------------||---------------------------------|------------------------------||*--------------------------------|------------------------------||*--------------------------------|----------------0--0-0-2--2-2-||---------------7-5-7-5-7-5-7-5---|--1--1-1-1--1-1---------------||---7--7-7-7--7-----------------8-|
--------------------------------|---------------------------------|--------------------------------|---------------------------------|--------------------------------|---------------------------------|--------------------------------|---------------------------------|--------------7-5-7-5-7-5-7-5---|---------------8-7-8-7-8-7-8-7-5-|--7--7-7-7--7-----------------8-|--8-8-8-8-8--8-------------------|
----------------------------------|----------------------------------|---------------------------------*|---------------------------------*|---------------8-7-8-7-8-7-8-7-5--|--5-5-5-5-5--5--------------------|
---------------------|--------------------|---------------------|---------------------|--------------------|---------------------|---------------------|--4r-----2~---------|---------------------|----------------2----|--------------------|----------------2----|--0------3-----------|--------------------|--0------3-----------|---------------------|--------------------|---------------------|
--------------------|---------------------|--------------------|--------------------|---------------------|--------------------|--4r-----2~---------|---------------------|--9r-----7~---------|--------------------|----------------7----|--------------------|--------------------|--5------8-----------|--------------------|--------------------|---------------------|--------------------|
---------------------|--------------------|---------------------|---------------------|--------------------|---------------------|---------------------|--9r-----7~---------|---------------------|----------------7----|--------------------|----------------2----|--5------8-----------|--------------------|--0------3-----------|---------------------|--------------------|---------------------|
--------------------|---------------------|--------------------|--------------------|---------------------|--------------------|--4r-----2~---------|---------------------|--4r-----2~---------|--------------------|----------------2----|--------------------|--------------------|--0------3-----------|--------------------|--------------------|---------------------|--------------------|
---------------------|---------------------|---------------------|---------------------|---------------------|---------------------|---------------------|---------------------|---------------------|--9------7------6----|---------------------|--9------7------6----|---------------------|--8------7------5----|---------------------|---------------------|---------------------|---------------------|
---------------------|---------------------|--------------------|---------------------|---------------------|--------------------|---------------------|---------------------|--5r-----3~---------|---------------------|----------------3----|--------------------|--8------7------5----|--1------4-----------|--------------------|---------------------|---------------------|--------------------|
---------------------|--------------------|---------------------|---------------------|--------------------|---------------------|---------------------|--5r-----3~---------|---------------------|----------------3----|--------------------|----------------8----|--1------4-----------|--------------------|--6------9-----------|---------------------|--------------------|---------------------|
---------------------|---------------------|---------------------|---------------------|---------------------|---------------------|--10r-----8~---------|---------------------|--10r-----8~---------|---------------------|----------------8----|---------------------|---------------------|--6------9-----------|---------------------|---------------------|---------------------|---------------------|
----------------------|---------------------|----------------------|----------------------|---------------------|----------------------|----------------------|---------------------|----------------------|--10------8------7----|---------------------|--10------8------7----|----------------------|--9------8------6----|----------------------|----------------------|---------------------|----------------------|
---------------------|---------------------|---------------------|---------------------|--9------8------6----|---------------------|
Tap to rate this tab
 
# A B C D E F G H I J K L M N O P Q R S T U V W X Y Z