Therion – Wine Of Aluqah tab

I pulled this tab off of Therion's official website, so it should be accurate. all
goes to Leandro (leandrobrazao@ig.com.br) so thank him for this. comments and criticism and
that happy stuff is appreciated. i believe this is much more accurate than the other 
of this song thats on here. enjoy

Therion - "Wine Of Aluqah"


0:20 ( 4x )|--------------------------------------------------||--------------------------------------------------||--------------------------------------------------||--------------------------------------------------||--------------------------------------------------||-0---0-0-0-1----0---0-0-0-3---0---0-0-0-1-0-3-0-1-|
0:33 ( 4x )|---------------------------||---------------------------||---------------------------||---------------------------||-2---3-2---5-2---3-2-5-2-3-||-0---1-0---3-0---1-0-3-0-1-|
0:46 = 0:20 , but only 2x 0:52 = 0:33 , but only 2x
0:58 ( 2x )|---------------------------------||---------------------------------||---------------------------------||-2---2-3-2---2-5-2---2-3-2-5-2-3-||-2---2-3-2---2-5-2---2-3-2-5-2-3-||-0---0-1-0---0-3-0---0-1-0-3-0-1-|
Verse ( 2x )|-----------------------------------------------------||-----------------------------------------------------||-----------------------------------------------------||-9---9-----------9-------9---------------9-------9-9-||-7---7---7-7-7-7-7---7-7-7---7-7-7-7-7-7-7---7-7-7-7-||-----------------------------------------------------|
|-----------------------------------------------------||-----------------------------------------------------||-----------------------------------------------------||-9---9-----------9-------9---------------9-------9-9-||-6---6---6-6-6-6-6---6-6-6---6-6-6-6-6-6-6---6-6-6-6-||-----------------------------------------------------|
|-----------------------------------------------------||-----------------------------------------------------||-----------------------------------------------------||-7---7-----------7-------7---------------7-------7-7-||-5---5---5-5-5-5-5---5-5-5---5-5-5-5-5-5-5---5-5-5-5-||-----------------------------------------------------|
|-----------------------------------------------------||-----------------------------------------------------||-----------------------------------------------------||-7---7-----------7-------7---------------7-------7-7-||-4---4---4-4-4-4-4---4-4-4---4-4-4-4-4-4-4---4-4-4-4-||-----------------------------------------------------|
1:30 ( 4x )|----------------14-12----------14-12----------12------------------||-------11-12~---------15-14~---------15-14-15---15-14-12-11----11-||-11-12------------------------------------------------------12----||------------------------------------------------------------------||------------------------------------------------------------------||------------------------------------------------------------------|
3rd and 4th times :|------------------------------------------------------------------||------------------------------------------------------------------||--7--------------6------------------------------------------------||--------------------------------5--------------8------------------||------------------------------------------------------------------||------------------------------------------------------------------|
Rhythm guitar at 1:30 and 3:06 ( 8x ) :|-----------------------------------------------------------||-----------------------------------------------------------||-----------------------------------------------------------||-----------------------------------------------------------||-----------------------------------------------------------||-2-2---3-2-0-2-2-2---3-2-0-2-2-2---3-2-0-2-3-2-0-2-3-2-0-2-|
3:06 ( 4x ) |-12~---------------------/15-14~---|
|-------15-14~----------------------||----------------15-12~-------------||-----------------------------------||-----------------------------------||-----------------------------------|
| ||-----------------------------------||-----------------------------------||--9~----------------------12-11~---||-------12-11~----8-----------------||-------------------10~-------------||-----------------------------------|
3rd and 4th times :|-14-12----------12--------------------------------------||-------15-14~------15-14--------15-14-------------------||--------------------------15~---------15-12-11/12-11~---||--------------------------------------------------------||--------------------------------------------------------||--------------------------------------------------------|
3:45 ( 4x )|---------------------------------|---------------------------------||---------------------------------|---------------------------------||---------------------------------|---------------------------------||---------------------------------|---------------------------------||-3-3-3-3-3-3-3-3-3-3-3-3-3-3-3-3-|---------------------------------||---------------------------------|-3-3-3-3-3-3-3-3-3-3-3-3-3-3-3-3-|
|---------------------------------|---------------------------------||---------------------------------|---------------------------------||---------------------------------|---------------------------------||---------------------------------|---------------------------------||-5-5-5-5-5-5-5-5-5-5-5-5-5-5-5-5-|---------------------------------||---------------------------------|-1-1-1-1-1-1-1-1-3-3-3-3-3-3-3-3-|
3:57 ( 2x )|----------------------------------------------||-13~---15-17-15-13-15~---12-------12-13-15~---||----------------------------12~---------------||----------------------------------------------||----------------------------------------------||----------------------------------------------|
|------------------------------------||-17-18-17---18-17-15-17-15-13-15-12-||------------------------------------||------------------------------------||------------------------------------||------------------------------------|
4:10 ( 4x )|-------------------------|-------------------------||-------------------------|-------------------------||-------------------------|-------------------------||-5-----5-----5-----5-----|-------------------------||-3-3-3-3-3-3-3-3-3-3-3-3-|-5-----5-----5-----5-----||-------------------------|-3-3-3-3-3-3-3-3-3-3-3-3-|
|-------------------------|-------------------------||-------------------------|-------------------------||-------------------------|-------------------------||-7-----7-----7-----7-----|-------------------------||-5-5-5-5-5-5-5-5-5-5-5-5-|-3-----3-----5-----5-----||-------------------------|-1-1-1-1-1-1-3-3-3-3-3-3-|
4:23 ( 2x )|-------------------------------------------------------------||-------------------------------------------------------------||-5~---7-9-7-5-7~---4------4-5-7~---9-10-9---10-9-7-9-7-5-7-4-||---------------------5~--------------------------------------||-------------------------------------------------------------||-------------------------------------------------------------|
Ending|-----------|-----------|-----------|-----------||-----------|-----------|-----------|-----------||-5---------|-7----3----|-5---------|-5---------||-5---------|-7----3----|-5---------|-5---------||-3---------|-5----1----|-3---------|-3---------||-----------|-----------|-----------|-----------|
|-----------|-----------|---||-----------|-----------|---||-5---------|-7----3----|-5-||-5---------|-7----3----|-5-||-3---------|-5----1----|-3-||-----------|-----------|---|
Please rate this tab:
x1.0