Third Day – May Your Wonders Never Cease tab

The two guitars (Gtr I, II) used in the
verses, chorus, and part of the solo are capo 5.

this is a pretty hard tab to play but with practice any1 shoud get it. 
if u want more visit my website at  
www.garethsmusic.741.com


CHORDS:
No Capo       Capo 5 (chords in parentheses represent shape relative to capo)
A5 57xxxx
G5 35xxxx
C5 x35xxx
Am x02210.....(Em) 022000
G  320033.....(D)  xx0232
C  x32010.....(G)  320033
Dm xx0231.....(Am) x02210
E  022100.....(B)  x24442 or (B7) x21202
F  133211.....(C)  x32010

INTRO/VERSE 1 (played on keyboard)
Am G C   6x

BRIDGE
Dm Am C E

CHORUS
Am F C G  2x

then the guitar parts start... Gtr I (capo 5) Riff 1a|---------------0----|-------------------||-----3----3-3--3----|------3----3-3-3-3-||-0---0--0-0-2--2----|------0----0-0-0-0-| 2x|-2---2--2---------0-|-----------0-0-0-0-||-2----------------2-|-------------------||------------------3-|-------------------|
VERSE 2 (both guitars capo 5) Gtr I plays variations of Riff 1a Gtr II plays... Riff 1b|--0----------2---------|-------------||--0-0--------3-3-------|-------------||--0---0------2-----2---|-------------| 4x|---------------------0-|-------------| |---------------------2-|-------------||---------------------3-|-------------|
*The endings to the second bar of those two riffs vary. Sometimes with a little hammer-on like this: e|--------| e|------| B|-3------| or B|------| G|-0h2p0--| G|-2p0--|
BRIDGE 2Gtr I plays capo 5 chords: (Am) (Em) (G) (B) whileGtr II plays:|-0----0------------|---------------------||-1-----------------|---------------------||-2-----------------|-0-----0-------------||-------------------|---2-----------2-----||-------------------|-----2-----------2---||-------------------|---------------------|
|-3-----------------|-2-------------------||-3----3------------|-4-------------------||--------0----------|---------------------||----------0--------|---------------------||-------------------|---------------------||-------------------|---------------------|
CHORUS Gtr I plays (Em) (C) (G) (D) twice then Gtr I and Gtr II play variations of Riffs 1a and 1b twice VERSE 3 Gtr I plays variations of Riff 1a 4x Gtr II plays variations of Riff 1b 4x
*the ending for the third repeat of Riff 1a for Gtr I is:|---------------------------||---------------------------||--------------0--2p0-----0-||------2p0------------0h2---||----------0h2--------------||---------------------------|
BRIDGE 3Gtr I plays capo 5 chords: (Am) (Em) (G) (B) whileGtr II plays:|----------------|----------------||-1-----1--------|----------------||---2------2---2-|-0-----0--------||-----2------2---|---2------2---2-||----------------|-----2------2---||----------------|----------------|
|-----------------|------------2-----||-----------------|-------0----------||-----------------|-----2------------||-----0-------0---|---1--------------||-2-2-2-2-2-2-2-2-|-2----------------||-3-3-3-3-3-3-3-3-|------------------|
CHORUS 3 Gtr I plays (Em) (C) (G) (D) (Em) (C) (G) (B) while... Gtr III plays A5 F5 C5 G5 A5 F5 C5 E5 then Gtr III plays ("/"s represent chord hits) A5 G5 C5 / / / / / / / Gtr I plays Riff 1a Gtr V plays Riff 2 (below)
||--------------------------|------------||||o-10--------12------13----|-----------o||||--12b14-----14b16---15b17-|------------|| 4x||--------------------------|------------||||o-------------------------|-----------o||||--------------------------|------------||
GUITAR SOLOGtr IV continues playing the below power chords A5 G5 C5 Gtr I (capo 5)|---------0-0-0-0-|-0-0-0-0-0-0-0-0-0-0-0-0--0-0-0--||-/5v-----5-5-5-5-|-5-5-5-5-5-5-5-5-5-3-3-3--3-3-3--||-----------------|---------------------------------||-----------------|---------------------------------||-----------------|---------------------------------||-----------------|---------------------------------|
A5 G5 C5|-0-0-0-0-0-0-0-0-0-0-0-0-0-0-|---0--0-------0-------0---||-5-3-3-3-3-0-0-0-3-3-3-3-0-0-|---0--0h1p0---0h3p0---0---||-----------------------------|--------------------------||-----------------------------|--------------------------||-----------------------------|--------------------------||-----------------------------|--------------------------|
A5 G5 Gtr III (no capo)|-----------------------------||---------20------------------||--19b21======19r(19)---19-17-||-----------------------------||-----------------------------||-----------------------------|
C5|-------------------------------17---17----------||----------------------------17----17----20b22===||-x-x-19b21r(19)-17h19-19b21---------------------||-x-x--------------------------------------------||-x-x--------------------------------------------||------------------------------------------------|
A5 G5|----17-----17-17-17-17-17-17-17-17-17-17-17-||====20pb22-20-20-20-20-20-20-20-20-20-20-20-||--------------------------------------------||--------------------------------------------||--------------------------------------------||--------------------------------------------| *the part above is a bend that is held and played. So where it has 20 means the string is fretted on the 20th but bent up a whole step
C5|-17-----17-17-17-17-17-17-17-17-17-17-17-17------------||-20pb22-20-20-20-20-20-20-20-20-20-20-20-20r(20)-(20)\-||-------------------------------------------------------||-------------------------------------------------------||-------------------------------------------------------||-------------------------------------------------------|
A5 G5 C5 Gtr IV (no capo)|------------------------|-----------------||------------------------|-----------------||------------5-7b9r(7)-5-|-7b9-------------||--------5-7-------------|-----------------||--3-5/7-----------------|-----------------||------------------------|-----------------|
A5 G5 C5|-8-------8---------------|---------------------||-8b10----8b10r(8)-6------|---------------------||--------------------7b9--|-----7b9r(7)-5-5h7-5-||-------------------------|---------------------||-------------------------|---------------------||-------------------------|---------------------|
A5 G5 C5|-----------------------|-------5------------5---||-----------------------|--8------5------5-8---5-||-----------5h7------5--|--7b9-------7b9---------||-------5h7------5h7----|------------------------||-----------------------|------------------------||-----------------------|------------------------|
A5 G5|-------5h8p5---5h8p5--------------------------------------------||-------------8-------8------------------------------------------||-7b9--------------------5-7-7b9-5-7-7b9-5-7-7b9-5-7-7b9-5-7-7b9-||----------------------------------------------------------------||----------------------------------------------------------------||----------------------------------------------------------------|
C5|----------------------------------------------------------||----------------------------------------------------------||-5-7-7b9-5-7-7b9-5-7-7b9-5-7-7b9-5-7-7b9--7b9r(7)-7b9r(7)-||----------------------------------------------------------||----------------------------------------------------------||----------------------------------------------------------|
A5 G5 C5|-----------------------------------------------||-----------------------------------------------||--7b9r(7)--7b9r(7)-7b9r(7)-7b9r(7)---7b9-------||-----------------------------------------------||-----------------------------------------------||-----------------------------------------------|
|
| Gtr V|-----------------------------------------------||-10------------------12-----------------13-----||-12b14---------------14b16--------------15b17--||-----------------------------------------------||-----------------------------------------------||-----------------------------------------------|
A5 |-----------------------------------------||----/13----------------------------------||-----------------------------------------||-----------------------------------------||-----------------------------------------||-----------------------------------------|
|
|-----------------------------------------||----------------------------8------------||-----5h7--7b9r(7)--5h7--5-----7pb9r(7)---||-----------------------------------------||-----------------------------------------||-----------------------------------------|
Gtr IV A5 G5 C5 with Gtr V Riff 2
A5 G5 C5 Gtr V Riff 2 Gtr I (capo 5)|----------0---0-0----------0---0--0-----|---0--0-0-0---0----0----0-0-0-||--------------3-3----------3---3--0-----|---5--5-5-3---5p3--5p3--0-5-0-||-------------------3--------------------|------------------------------||--0-------------------------------------|------------------------------||----------------------------------------|------------------------------||----------------------------------------|------------------------------|
Gtr IV A5 G5 C5 Gtr V Riff 2 Gtr I|--0-------0----0----0-0--0--0---||--0-------3p0--3p0--0-5--0--5---||--------------------------------||--------------------------------||--------------------------------||--------------------------------|
|---0--0---0-------0---0---0----0--0-||---0--5---0-------5---0---5----5--0-||------------------------------------||------------------------------------||------------------------------------||------------------------------------|
|
|------------------------------------||------------------------------------||------------------------5-7b9r(7)-5-||------5-5-----5-----7---------------||------3-3-----3---------------------||------------------------------------|
Gtr III|-----20b22-----------20pb22-20-17----||----------------------------------20-||-------------------------------------||-------------------------------------||-------------------------------------||-------------------------------------|
|
| Gtr IV|-------------------------------------||------1------------3-----------------||-----------2----------0--------------||---2---------------------------------||-0------------------------------3----||---------------3---------------------|
|-------17-------------17----------------17-||-20b22----17h20p17-17----17----------17----||-------------------------------19b21-------||-------------------------------------------||-------------------------------------------||-------------------------------------------|
|
|-------------------------------------------||--------------------1----------------------||--------------------------0----------------||-----------2-------------------------------||----------------------------3---2----------||-------------------------------------------|
~~|-------------------17---------------------|------------------||-17-------------17------------------------|------------------||----------19b21-------19p17-19b21r(19)-17-|------------------||------------------------------------------|------------------||------------------------------------------|------------------||------------------------------------------|------------------|
|
|------------------------------------------|------------------||------1----------------3------------------|--------1---------||--------2--------------------0------------|------0---0-------||----2-------------------------------------|------------------||--0-------------------------------------3-|------------3--2--||-----------3------------------------------|------------------|
Outro Gtrs III, IV 7x||------------------|------------------||||o-----1-----3-----|-------1---------o||||--------2-----0---|-----0---0--------||||----2-------------|------------------||||o-0-------------3-|-----------3--2--o||||----------3-------|------------------||
Tablature Legend ---------------- h - hammer-on p - pull-off b - bend pb - pre-bend r - bend release /\ - slide into or out ~ - vibrato = - hold bend; also acts as connecting device for hammers/pulls Generated using Power Tab Editor by Brad Larsen http://powertab.guitarnetwork.org ============================================================================== Third Day May Your Wonders Never Cease Verse 1: Am G C Am G C Am G C Am G C Dm Am C B7 Chorus: Am F C G Am F C B7 Am G C Verse 2: same chords as verse 1
Please rate this tab:
x1.0