Third Eye Blind – Can You Take Me tab

Grabbed this off a forum on 3eb's UK website... so thank you to K Sull, whoever you may be.

Pretty similar to Graduate.

Song: Can You Take Me
Artist: Third Eye Blind
Tabbed by: Kyle Sullivan
Tuning: Open D

D A D F# A D

Intro/Chorus

-----------------------------------------|-----9---9-9-------------9---9-9-9-9-----|-----8---8-8-------------8---8-8-8-8-----|-7-5-7---7-7-7-9-9-9-7-5-7---7-7-7-7-9-9-|-7-5-5---5-5-7-9-9-9-7-5-5---5-5-5-5-9-9-|-7-5---------7-9-9-9-7-5-------------9-9-|
-----------------------------------------|-----9---9-9-------------9---9-9---------|-----8---8-8-------------8---8-8---------|-7-5-7---7-7-7-9-9-9-7-5-7---7-7-7-7-9-9-|-7-5-5---5-5-7-9-9-9-7-5-5---5-5-7-7-9-9-|-7-5---------7-9-9-9-7-5---------7-7-9-9-|
-----------------------------------------|---9-9---9-9-------------9---9-9-9-9-----|---8-8---8-8-------------8---8-8-8-8-----|-5-7-7---7-7-7-9-9-9-7-5-7---7-7-7-7-9-9-|-5-5-5---5-5-7-9-9-9-7-5-5---5-5-5-5-9-9-|-5-----------7-9-9-9-7-5-------------9-9-|
----------------------------------------|---9-9---9-9-------------9---9-9--------|---8-8---8-8-------------8---8-8--------|-5-7-7---7-7-7-9-9-9-7-5-7---7-7-7-7-9--|-5-5-5---5-5-7-9-9-9-7-5-5---5-5-7-7-9--|-5-----------7-9-9-9-7-5---------7-7-9--|
Verse
-------------------------|-------9-9---------5-5---|-5-5---8-8---2-2---5-5---|-5-5---7-7---2-2---4-4---|-5-5---5-5---2-2---2-2---|-5-5---------2-2---------|
---------------------------|-------9-9---------5-5/9---|-5-5---8-8---2-2---5-5/8---|-5-5---7-7---2-2---4-4/7---|-5-5---5-5---2-2---2-2/5---|-5-5---------2-2-----------|
Pre-Chorus
-------------|-9---9-------|-8---8---5---|-7---7---5---|-5---7---5---|-----7---5---|
Solo
----------------------------------|----------------------------------|----------------------------------|-4-----2-4-----2-4-----2-4----2-4-|---2-5-----2-5-----2-5-----2-5----|----------------------------------|
Breakdown(Palm Mute)-----------------------------------------|-9-9-9-9-9-9-9-9-10-10-10-10-10-10-10-10-|-8-8-8-8-8-8-8-8-10-10-10-10-10-10-10-10-|-7-7-7-7-7-7-7-7-9--9--9--9--9--9--9--9--|-5-5-5-5-5-5-5-5-7--7--7--7--7--7--7--7--|-----------------------------------------|
------------------------------------|-5-5-5-5-5-5-5-5-5-5-5-5-5-12b14r12-|-5-5-5-5-5-5-5-5-5-5-5-5-5----------|-4-4-4-4-4-4-4-4-4-4-4-4-4----------|-2-2-2-2-2-2-2-2-2-2-2-2-2----------|------------------------------------|
End
------------------|------------------|-8----------------|-7---7----9-------|-5---7----9-------|-----7----9-------|
Please rate this tab:
x1.0