This Town Needs Guns – 26 Is Dancier Than 4 Acoustic tab

not my tab. just thought i'd share.

26 is Dancier Than 4
By This Town Needs Guns
(Acoustic Version - Not the same as the record)
Tabbed by Patrick Brownfield
Tuning CGCGBD, Capo 6
(All frets relative to Capo)

Part I

Pick Up; (repeat from *)D||--------*------0-------------------------------------------------|B||--------*------0----3h5p3h0----------3---------3----------0--0---|G||0-------*------0-------------2h0-------0h2-------0h2-----0-0---0-| (x5)C||-2----0-h2--2----------------------------------------------------|G||--0---0-h4--4----------------------------------------------------|C||---0--0-h4--4---------------------0---------0----------2----2----|
The last time before the Part II, add this to the end and (pause, 2,3,4)...
-------|-------|---6---|-------|-------|---2---|
Part II
-------------------------------------------------------0---------------|---3--1--0------------1h3p1p0---------------------------0--------------|--0--0-0---0--2p0-------------2/4p0-------0---0---0------2p0-----0-----| (X4)-2-------------------------------------0h2-2/4-4/6-6---------0h2-------|0----------------------------------------------------------------------|--------------------0--------------------------------0-----------------|
Part III
---4h5p4p0-------------------|----------0----------0-------|-----------0---2p0-----0h2p0-| (X6)-----------------------------|-0------------0--------------|-----------------------------|
---4h5p4p0-------------------|----------0----------0-------|-----------0---2p0-----0h2p0-| (X2)-----------------------------|-------------0-----0---------|-4---------------------------|
---4h5p4p0-------------------|----------0----------0-------|-----------0---2p0-----0h2p0-| (X2)-----------------------------|-------------0-----0---------|-0---------------------------|
---4h5p4p0-------------------|----------0----------0-------|-----------0---2p0-----0h2p0-| (X2)-----------------------------|-0------------0-----0--------|-----------------------------|
---4h5p4p0-------------------|----------0----------0-------|-----------0---2p0-----0h2p0-| (X2)-----------------------------|-------------0-----0---------|-0---------------------------|
---4h5p4p0-------------------|----------0----------0-------|-----------0---2p0-----0h2p0-| (X2)-----------------------------|-------------0-----0---------|-4---------------------------|
---4h5p4p0-------------------|----------0----------0-------|-----------0---2p0-----0h2p0-| (X2)-----------------------------|-------------0-----0---------|-0---------------------------|
End on G String Fret #2 Repeat All of the above, making Part I only 4 times instead of 5, then end with: Part IV:
------------- ------0------------------------------------------------|---------0--- ------0------------------------------------------------|-----0h2--2-- (x3),------0----0----0--------------------------------------| (x6)-4-4--------- --0h2---2/4--4/6--6--0---------------------------------|-4-4--------- -------------------------------------------------------|-4-4--------- -------------------------------------------------------|
---0----0---0-----------------------------------|---0----0---0-----------------------------------|---0----0---0-----------------------------------| (End)---4----2---0-----------------------------------|---4----2---0-----------------------------------|---4----2---0-----------------------------------|
Please rate this tab:
x1.0