Thousand Foot Krutch - Make Me A Believer tab

Drop D Tuning  D A D G B E
Here you go.  I didn't realize that the last chorus had a different lead till
just now and I don't feel like going back to pick it up.  It's not real
hard to play, just kinda hard to hear.  Have fun.

Intro|-------------------|-----------------------|-------------------||-------------------|-----------------------|-------------------||-------------------|-----------------------|-------------------||-------------------|-----------------------|-------------------||-3p0-0-0-3-3-5-5-5-|-3p0-0-0-3-3-5-5-5-5-5-|-3p0-0-0-3-3-5-5-5-||-3p0-0-0-3-3-5-5-5-|-3p0-0-0-3-3-5-5-5-5-5-|-3p0-0-0-3-3-5-5-5-|
|-----------------||-----------------||-----------------| 2x|-5-5-5-5-5-5b6-5-||-5-5-5-5-5-5b6-5-||-5-5-5-5-5-5b6-5-|
Verse
|----------|----------|----------|-------------------||----------|----------|----------|-------------------||----------|----------|----------|---------5-5-5-5-5-||-0-0-0----|-8-8-8----|-5-5-5----|---------5-5-5-5-5-||-0-0-0----|-8-8-8----|-5-5-5----|-3p0-0-0-3-3-3-3-3-||-0-0-0----|-8-8-8----|-5-5-5----|-3p0-0-0-----------|
|----------|----------|----------|-------------------||----------|----------|----------|-------------------||----------|----------|----------|-------------------||-0-0-0----|-8-8-8----|-5-5-5----|---------5-5-5-5-5-||-0-0-0----|-8-8-8----|-5-5-5----|-3p0-0-0-5-5-5-5-5-||-0-0-0----|-8-8-8----|-5-5-5----|-3p0-0-0-5-5-5-5-5-|
Pre Chorus|-----------------------|------------------------||-----------------------|------------------------||-----------------------|------------------------||-7-----7---------------|-10----10---------------||-5-----5---------------|--8-----8---------------||-5-----5---------------|--8-----8---------------|
| |
|-----------------------|------------------------||-----/10-(10)pb11r(10)-|------/10-(10)pb11r(10)-||-7---------------------|--7---------------------||-----------------------|------------------------||-----------------------|------------------------||-----------------------|------------------------|
|-----------------------|-------------||-----------------------|-------------||-----------------------|-----------5-||-7-----7---------------|--8--3--1--5-||-5-----5---------------|--8--3--1--3-||-5-----5---------------|--8--3--1----|
|
|-----------------------|-------------||-----/10-(10)pb11r(10)-|-11-------13-||-7---------------------|----10-------||-----------------------|-------13----||-----------------------|-------------||-----------------------|-------------|
Chorus
|----------|---------------------|----------------------|----------------||----------|---------------------|----------------------|----------------||----------|---------------------|----------------------|----------------||-0---10---|--8-8-10-10----------|--0-0-7--7-------7--7-|-10-10--8--8--8-||-0----8---|--8-8-10-10----------|--0-0-5--5-------5--5-|-10-10--8--8--8-||-0--------|--8-8-10-10----------|--0-0-----------------|-10-10--8--8--8-|
|
|----------|---------------------|----------------------|----------------||-----10---|-10------------------|-10-------------------|----------------||-7--------|----7--9-(9)pb10r(9)-|----7-9-(9)pb10r(9)---|-12-12-10-10-10-||----------|---------------------|----------------------|----------------||----------|---------------------|----------------------|----------------||----------|---------------------|----------------------|----------------|
|----------|---------------------||----------|---------------------||----------|---------------------||-0---10---|--8-8-10-10----------||-0----8---|--8-8-10-10----------||-0--------|--8-8-10-10----------|
|
|----------|---------------------||-----10---|-10------------------||-7--------|----7--9-(9)pb10r(9)-||----------|---------------------||----------|---------------------||----------|---------------------|
|----------------------------------|-----------------------||----------------------------------|-----------------------||----------------------------------|-----------------------||-12p10-10-10-10-10-10------10--10-|-7-7-7--8-8--8-8-------||-12p10-10-10-10-10-10------10--10-|-7-7-7--8-8--8-8----0--||-12p10-10-10-10-10-10------10--10-|-7-7-7--8-8--8-8----0--|
|
|----------------------------------|-----------------------||-10-------------------------------|-----------------------||--------7-----9----(9)pb10r(9)----|-9-9---10---10---10----||----------------------------------|-----------------------||----------------------------------|-----------------------||----------------------------------|-----------------------|
Bridge
|------------|----------|------------|--------||------------|----------|------------|--------||------------|----------|------------|--------||--8---------|-10-------|--5---------|--3-----||--8---------|-10-------|--5---------|--3-----||--8---------|-10-------|--5---------|--3-----|
| |
|-------8----|-(8)------|-------8----|-(8)----||-10---------|----------|-10---------|--------||----10------|----------|----10------|--------||------------|----------|------------|--------||------------|----------|------------|--------||------------|----------|------------|--------|
|------------|------------|------------|----------------||------------|------------|------------|----------------||------------|------------|------------|----------------||--8---------|-10---------|--5---------|--3-------------||--8---------|-10---------|--5---------|--3-------------||--8---------|-10---------|--5---------|--3-------------|
|
|-------8----|------------|-------8----|-------8--------||-10---------|-------8----|-10---------|----10---10-----||----10------|--9-10------|----10------|-10---------10--||------------|------------|------------|----------------||------------|------------|------------|----------------||------------|------------|------------|----------------|
|---------------|---------------------||---------------|---------------------||---------------|---------------------||--8-8--8-8-8-8-|-10-10---10-10-10-10-||--8-8--8-8-8-8-|-10-10---10-10-10-10-||--8-8--8-8-8-8-|-10-10---10-10-10-10-|
|
|------10-8-----|-10----8----10-10-10-||-10------------|---------------------||---------------|---------------------||---------------|---------------------||---------------|---------------------||---------------|---------------------|
|-----------------|-------------------------------------||-----------------|-------------------------------------||-----------------|-------------------------------------||--5-5----5-5-5-5-|--3-----3-----3-----3-----3-----3----||--5-5----5-5-5-5-|--3-----3-----3-----3-----3-----3----||--5-5----5-5-5-5-|--3-----3-----3-----3-----3-----3----|
|
|-----------8-----|-10b13-10b13-10b13-10b13-10b13-10b13-||-10--------------|-------------------------------------||------10---------|-------------------------------------||-----------------|-------------------------------------||-----------------|-------------------------------------||-----------------|-------------------------------------|
|-------------------------------------|----------------------------||-------------------------------------|----------------------------||-------------------------------------|----------------------------||--2-----2-----2-----2-----2-----2----|--2-----2-----2-----2\------||--2-----2-----2-----2-----2-----2----|--2-----2-----2-----2\------||--2-----2-----2-----2-----2-----2----|--2-----2-----2-----2\------|
|
|-10b12-10b12-10b12-10b12-10b12-10b12-|-10b12-10b12-10b12-10b12\---||-------------------------------------|----------------------------||-------------------------------------|----------------------------||-------------------------------------|----------------------------||-------------------------------------|----------------------------||-------------------------------------|----------------------------|
Tap to rate this tab
 
# A B C D E F G H I J K L M N O P Q R S T U V W X Y Z