Three Days Grace - Home Rhythmlead Mix tab

HOME

Tuning: Drop C, (C, G, C, F, A, D)

Intro:

Lead/Rhythm Guitar Mix|----17----17-----18---20-18-|-----17----17----18----20-18-||----------------------------|-----------------------------||----------------------------|-----------------------------||0-0---0-0---10-10--5-5------|-0-0---0-0---1-1---5-5-------||0-0---0-0---8--8---5-5------|-0-0---0-0---1-1---3-3-------||0-0---0-0---8--8---5-5------|-0-0---0-0---1-1-------------|
|------------------------------------------|--------------------------------------------||------------------------------------------|--------------------------------------------||------------------------------------------|--------------------------------------------||0-0-x-x-x-0-0-x-x-x-10-10-x-x-x-5-5-x-x-x-|-0-0-x-x-x-0-0-x-x-x-1-1-x-x-x-5-5-x-x-x----||0-0-x-x-x-0-0-x-x-x-8--8--x-x-x-5-5-x-x-x-|-0-0-x-x-x-0-0-x-x-x-1-1-x-x-x-3-3-x-x-x----||0-0-x-x-x-0-0-x-x-x-8--8--x-x-x-5-5-x-x-x-|-0-0-x-x-x-0-0-x-x-x-1-1-x-x-x--------------|
Verse:|------------------------------------------||--10---10---10---10----11---11---11---11--||7----7----7----7-----7----7----7----7-----||------------------------------------------||------------------------------------------||------------------------------------------|
|---------------------------------------------------------||---------------------------------------------------------||---------------------------------------------------------||---------------------------------------------------------||---------------------------------------------------------||0-3p0-0-5p0-0-7p0-0-8-10-12---0-3p0-0-5p0-0-7p0-0-8-10-12|
|------------------------------------------||--10---10---10---10----11---11---11---11--||7----7----7----7-----7----7----7----7-----||------------------------------------------||------------------------------------------||------------------------------------------|
|---------------------------------------------------------||---------------------------------------------------------||---------------------------------------------------------||---------------------------------------------------------||---------------------------------------------------------||0-3p0-0-5p0-0-7p0-0-8-10-12---0-3p0-0-5p0-0-7p0-0-8-10-12|
Chorus:|-----------------|----0-----------|----0------------|----0-------------||-----------------|----3-----------|----3------------|----3-------------||-----------------|----2-----------|----2------------|----2-------------||---------10--5---|-0------1---5---|-0------10---5---|-0------1-----5---||0-0-0-0--8---5---|-0------1---3---|-0------8----5---|-0------1-----3---||0-0-0-0--8---5---|-0------1-------|-0------8----5---|-0------1---------|
Better off Alone:
|----17----17-----18---20-18-|-----17----17----18----20-18-||----------------------------|-----------------------------||----------------------------|-----------------------------||0-0---0-0---10-10--5-5------|-0-0---0-0---1-1---5-5-------||0-0---0-0---8--8---5-5------|-0-0---0-0---1-1---3-3-------||0-0---0-0---8--8---5-5------|-0-0---0-0---1-1-------------|
|---------------------------------------------------------||---------------------------------------------------------||---------------------------------------------------------||---------------------------------------------------------||---------------------------------------------------------||0-3p0-0-5p0-0-7p0-0-8-10-12---0-3p0-0-5p0-0-7p0-0-8-10-12|
Verse:|------------------------------------------||--10---10---10---10----11---11---11---11--||7----7----7----7-----7----7----7----7-----||------------------------------------------||------------------------------------------||------------------------------------------|
|---------------------------------------------------------||---------------------------------------------------------||---------------------------------------------------------||---------------------------------------------------------||---------------------------------------------------------||0-3p0-0-5p0-0-7p0-0-8-10-12---0-3p0-0-5p0-0-7p0-0-8-10-12|
|------------------------------------------||--10---10---10---10----11---11---11---11--||7----7----7----7-----7----7----7----7-----||------------------------------------------||------------------------------------------||------------------------------------------|
|---------------------------------------------------------||---------------------------------------------------------||---------------------------------------------------------||---------------------------------------------------------||---------------------------------------------------------||0-3p0-0-5p0-0-7p0-0-8-10-12---0-3p0-0-5p0-0-7p0-0-8-10-12|
Chorus:
|-----------------|----0-----------|----0------------|----0-------------||-----------------|----3-----------|----3------------|----3-------------||-----------------|----2-----------|----2------------|----2-------------||---------10--5---|-0------1---5---|-0------10---5---|-0------1-----5---||0-0-0-0--8---5---|-0------1---3---|-0------8----5---|-0------1-----3---||0-0-0-0--8---5---|-0------1-------|-0------8----5---|-0------1---------|
Better off Alone:
|----17----17-----18---20-18-|-----17----17----18----20-18-||----------------------------|-----------------------------||----------------------------|-----------------------------||0-0---0-0---10-10--5-5------|-0-0---0-0---1-1---5-5-------||0-0---0-0---8--8---5-5------|-0-0---0-0---1-1---3-3-------||0-0---0-0---8--8---5-5------|-0-0---0-0---1-1-------------|
|------------------------------------------|-----------------------------------20-18-17-||------------------------------------------|--------------------------------------------||------------------------------------------|--------------------------------------------||0-0-x-x-x-0-0-x-x-x-10-10-x-x-x-5-5-x-x-x-|-0-0-x-x-x-0-0-x-x-x-1-1-x-x-x-5-5----------||0-0-x-x-x-0-0-x-x-x-8--8--x-x-x-5-5-x-x-x-|-0-0-x-x-x-0-0-x-x-x-1-1-x-x-x-3-3----------||0-0-x-x-x-0-0-x-x-x-8--8--x-x-x-5-5-x-x-x-|-0-0-x-x-x-0-0-x-x-x-1-1-x-x-x--------------|
Bridge: (meant for bass, can do this with your volume really low)
|--------------------------------||--------------------------------||--------------------------------||--------------------------------||--------------------------------||0-0-0-0-0-0-0-0-8-8-8-8-5-5-5-5-| (x2)
Bridge: This part IS done on your guitar
|------------------------||------------------------||------------------------||------------------------||------------------------||0-0-0-0-0-0-0-0-1-1-1-1-| I'm better off alone
Chorus:
|-----------------|----0-----------|----0------------|----0-------------||-----------------|----3-----------|----3------------|----3-------------||-----------------|----2-----------|----2------------|----2-------------||---------10--5---|-0------1---5---|-0------10---5---|-0------1-----5---||0-0-0-0--8---5---|-0------1---3---|-0------8----5---|-0------1-----3---||0-0-0-0--8---5---|-0------1-------|-0------8----5---|-0------1---------|
Better off Alone:
|----17----17-----18---20-18-|-----17----17----18----20-18-||----------------------------|-----------------------------||----------------------------|-----------------------------||0-0---0-0---10-10--5-5------|-0-0---0-0---1-1---5-5-------||0-0---0-0---8--8---5-5------|-0-0---0-0---1-1---3-3-------||0-0---0-0---8--8---5-5------|-0-0---0-0---1-1-------------|
End w/ Long Open D
Tap to rate this tab
 
# A B C D E F G H I J K L M N O P Q R S T U V W X Y Z