Three Days Grace - I Hate Everything About You tab version 1

I Hate Everything About You - Three Days Grace
CD Version
Drop D: DADGBE

Thanks again to "Hal and Leonard" for the chorus! Please rate!

Guitar 1 - Barry Stock
Guitar 2 - Adam Gontier

INTRO 1XGuitar 1 - Acoustic v----1/4 bends|--------------------------------------------------||--------------------------------------------------||-------6~-----------6~-----------6~---------6~----||----4--6~---------4-6~---------4-6~-------4-6~----||----4-------------4-----------4-----------4-------||-4-----------0-4---------0-4---------0-4----------|
|--------------------------------------------------||--------------------------------------------------||--------6~----------6~-----------6~---------6~----||-----4--6~--------4-6~---------4-6~-------4-6~----||-----4------------4-----------4-----------4-------||-0-4----------0-4---------0-4---------0-4---------|
VERSE 4XGuitar 1 - acoustic|--------------------------------------------------||--------------------------------------------------||--------6~----------6~-----------6~---------6~----||-----4--6~--------4-6~---------4-6~-------4-6~----||-----4------------4-----------4-----------4-------||-0-4----------0-4---------0-4---------0-4---------|
|--------------------------------------------------||--------------------------------------------------||------4-6~--------4-6~--------4-6~--------4-6~----||------4-6~--------4-6~--------4-6~--------4-6~----||---0-----------0-----------0-----------0----------||-0-----------0-----------0-----------0------------|
PRE-CHORUS Both Guitars (electric) w/ tremolo and distortion
|--------------------------------------------0-----||-5------------------------------------------3-----||-4------------------------------------------2-----||-2--------------------0---------------------0-----||-2--------------------0---------------------0-----||-2--------------------0---------------------0-----|
CHORUS 2XBoth Guitars - Electric w. Dist. v v-I know these are right!! - just saw a live performance!! |------------------------------------------------||-----------2-2----------------------------------||--6-6------2-2------9-9-9-9-9-9--9--4-4-4-4-4-4-||--4-4------0-0------7-7-7-7-7-7--7--2-2-2-2-2-2-||--4-4------0-0------7-7-7-7-7-7--7--2-2-2-2-2-2-||--4-4------0-0------7-7-7-7-7-7--7--2-2-2-2-2-2-|
|------------------------------------------------------------||------------------------------------------------------------||-6-6-6-6-6-6---6---2-2-2-2-2-2-----4-4-4-4-4-4-----9---8----||-4-4-4-4-4-4---4---0-0-0-0-0-0-----2-2-2-2-2-2-----7---6----||-4-4-4-4-4-4---4---0-0-0-0-0-0-----2-2-2-2-2-2-----7---6----||-4-4-4-4-4-4---4---0-0-0-0-0-0-----2-2-2-2-2-2-----7---6----|
INTERLUDEGuitar 1 - acoustic v----1/4 bends|--------------------------------------------------||--------------------------------------------------||-------6~-----------6~-----------6~---------6~----||----4--6~---------4-6~---------4-6~-------4-6~----||----4-------------4-----------4-----------4-------||-4-----------0-4---------0-4---------0-4----------|
Guitar 2 - Electric (let ring)|-----------------------------------------------------0---------||-------------------------------------------------3-----3-------||-----------------------------------------------6---6-----6-----||---------------------------------------------------------------||---------------------------------------------------------------||---------------------------------------------------------------|
Guitar 1|--------------------------------------------------||--------------------------------------------------||------4-6~--------4-6~--------4-6~--------4-6~----||------4-6~--------4-6~--------4-6~--------4-6~----||---0-----------0-----------0-----------0----------||-0-----------0-----------0-----------0------------|
Guitar 1 - acoustic 2X v----1/4 bends|--------------------------------------------------||--------------------------------------------------||-------6~-----------6~-----------6~---------6~----||----4--6~---------4-6~---------4-6~-------4-6~----||----4-------------4-----------4-----------4-------||-4-----------0-4---------0-4---------0-4----------|
Guitar 1|--------------------------------------------------||--------------------------------------------------||------4-6~--------4-6~--------4-6~--------4-6~----||------4-6~--------4-6~--------4-6~--------4-6~----||---0-----------0-----------0-----------0----------||-0-----------0-----------0-----------0------------|
Pre Chorus Both Guitars (electric) w/ tremolo and distortion
|--------------------------------------------0-----||-5------------------------------------------3-----||-4------------------------------------------2-----||-2--------------------0---------------------0-----||-2--------------------0---------------------0-----||-2--------------------0---------------------0-----|
Chorus 2X Both Guitars
|------------------------------------------------||-----------2-2----------------------------------||--6-6------2-2------9-9-9-9-9-9--9--4-4-4-4-4-4-||--4-4------0-0------7-7-7-7-7-7--7--2-2-2-2-2-2-||--4-4------0-0------7-7-7-7-7-7--7--2-2-2-2-2-2-||--4-4------0-0------7-7-7-7-7-7--7--2-2-2-2-2-2-|
|------------------------------------------------------------||------------------------------------------------------------||-6-6-6-6-6-6---6---2-2-2-2-2-2-----4-4-4-4-4-4-----9---8----||-4-4-4-4-4-4---4---0-0-0-0-0-0-----2-2-2-2-2-2-----7---6----||-4-4-4-4-4-4---4---0-0-0-0-0-0-----2-2-2-2-2-2-----7---6----||-4-4-4-4-4-4---4---0-0-0-0-0-0-----2-2-2-2-2-2-----7---6----|
BridgeGuitar 2|--------------------------------------------------------------||--------------------------------------------------------------||-13-13-13-14-14-14-16-16--13-13-13-14-14-14-16-16-------------||--x--x--x--x-x--x--x--x---x--x--x--x--x--x--x--x--------------||-11-11-11-12-12-12-14-14--11-11-11-12-12-12-14-14-------------||--------------------------------------------------------------|
|--------------------------------------------------------------||--------------------------------------------------------------||-13-13-13-14-14-14-16-16---13-13-13--14/13----9---------------||--x--x--x--x--x--x--x--x----x--x--x---x-------x---------------||-11-11-11-12-12-12-14-14---11-11-11--12/11----7---------------||--------------------------------------------------------------|
|--------------------------------------------------------------||--------------------------------------------------------------||-13-13-13-14-14-14-16-16--13-13-13-14-14-14-16-16-------------||--x--x--x--x-x--x--x--x---x--x--x--x--x--x--x--x--------------||-11-11-11-12-12-12-14-14--11-11-11-12-12-12-14-14-------------||--------------------------------------------------------------|
|--------------------------------------------------------------||--------------------------------------------------------------||-13-13-13-14-14-14-16-16---13-13-13--14/13----9/6-------------||--x--x--x--x--x--x--x--x----x--x--x---x-------x/x-------------||-11-11-11-12-12-12-14-14---11-11-11--12/11----7/4-------------||--------------------------------------------------------------|
|--------------------------------------------------||--------------------------------------------------||-------6~-----------6~-----------6~---------------||----4--6~---------4-6~---------4-6~-------4-------||----4-------------4-----------4-----------4-------||-4-----------0-4---------0-4---------0-4----------|
Chorus 2X Both Guitars
|------------------------------------------------||-----------2-2----------------------------------||--6-6------2-2------9-9-9-9-9-9--9--4-4-4-4-4-4-||--4-4------0-0------7-7-7-7-7-7--7--2-2-2-2-2-2-||--4-4------0-0------7-7-7-7-7-7--7--2-2-2-2-2-2-||--4-4------0-0------7-7-7-7-7-7--7--2-2-2-2-2-2-|
|------------------------------------------------------------||------------------------------------------------------------||-6-6-6-6-6-6---6---2-2-2-2-2-2-----4-4-4-4-4-4-----9---8----||-4-4-4-4-4-4---4---0-0-0-0-0-0-----2-2-2-2-2-2-----7---6----||-4-4-4-4-4-4---4---0-0-0-0-0-0-----2-2-2-2-2-2-----7---6----||-4-4-4-4-4-4---4---0-0-0-0-0-0-----2-2-2-2-2-2-----7---6----|
Tap to rate this tab
 
# A B C D E F G H I J K L M N O P Q R S T U V W X Y Z