Three Days Grace - Gone Forever tab

This is on a 4 string bass tuned to E,A,D,G

0:31 bass comes in|-7777-9999-10-||--------------||--------------||--------------|
|22-33------555-55-||-----555-55-------||------------------||------------------| (x2)
|----3333----5555-3~--2~--3~--5~-||2222----5555--------------------||--------------------------------||--------------------------------|
|777777-7777----5555----33333333-00000012-||-----------9955----9955------------------||-----------------------------------------||-----------------------------------------| (x2)
|-7777-9999-10-||--------------||--------------||--------------|
|22-33------555-55-||-----555-55-------||------------------||------------------| (x2)
|----3333----5555-3~--2~--3~--5~-||2222----5555--------------------||--------------------------------||--------------------------------|
|000000-----------00000000---------------00000000-----33332222333355555-||------22222253h20--------22222000053h20---------22222------------------||-----------------------------------------------------------------------||-----------------------------------------------------------------------|
[Epic feedback]
|22-33------555-55-||-----555-55-------||------------------||------------------| (x2)
|----3333----5555-3~--2~--3~--5~-||2222----5555--------------------||--------------------------------||--------------------------------|
|3333-2222-3333-5555 on E x5 That's it, already submitted this, but wasn't logged in =O anyway anything wrong still, , if you decide to hollar
Tap to rate this tab
 
# A B C D E F G H I J K L M N O P Q R S T U V W X Y Z