Thrice – Hoods On Peregrine tab

Thrice
Hoods on Peregrine


Tuning (low to high: CGCFAD)


IntroGtr.1 Gtrs. 1 and 2|-------------|---------------------------------------------------------|-------------|-------8-8-8-6~--------5-5-5-3~--------------------------|--7~---------|-------7-7-7-7~--------7-7-7-7~--------------------------|-------------|-------0-----0~--------0-----0~--------------------------|-------------|-0-0-0-----------0-0-0------------8~----/5-3-------------|-------------|-0-0-0-----------0-0-0------------8~---------------------(Volume swellwith feedback)
VersesGtr. 1|----------------------------------------------------------|----------------------------------------------------------|----------------------------------------------------------|--10h12-12-12---------------------------------------------|--------------10h12-12-12---------------------------------|--------------------------10h12-12-12-10h12-12-12---------
Gtr. 2|----------------------------------------------------------|----------------------------------------------------------|----------------------------------------------------------|--10h12~--------------------------------------------------|--------------10h12~--------------------------------------|--------------------------10h12~--------------------------
Gtr. 1|----------------------------------------------------------|----------------------------------------------------------|----------------------------------------------------------|--10h12-12-12---------------------------------------------|--------------10h12-12-12---------------------------------|--------------------------10h12-12-12-10h12-12-12---------
Gtr. 2|----------------------------------------------------------|----------------------------------------------------------|----------------------------------------------------------|----------------------------------------------------------|--8h10~---------------------------------------------------|--------------------------3h5~----------------------------
Gtr. 1|-------------------------------------------------------------------|-------------------------------------------------------------------|-------------------------------------------------------------------|--------------10----------10h12--12-12-----------------------------|--------10h12----12-10h12--------------10h12-12-12-----------------|--10h12--------------------------------------------10h12-12-12-----
Gtr. 2|-------------------------------------------------------------------|-------------------------------------------------------------------|----------5-------5h7-7-7------------------------------------------|------5h7---7-5h7---------5h7-7-7----------------------------------|--3h5-----------------------------3h5-5-5--------------------------|-------------------------------------------------------------------
Pre-chorus Gtr. 1
|--------------------------------------------------------|--------------------------------------------------------|----------------10-9--------------------10-9------------|----------10h12------10-----------10h12------10---------|----10h12-------------------10h12-----------------------|-8~----------------------8~-----------------------------
Gtr. 2|--------------------------------------------------------|--------------------------------------------------------|--------------------------------------------------------|--------------------------------------------------------|-8~--8-8-8-8-8~--8-8-8-8-8~--8-8-8-8-8~--8-8-8-8--------|-8~--8-8-8-8-8~--8-8-8-8-8~--8-8-8-8-8~--8-8-8-8--------
Gtrs. 1 and 2|---------------------------------------------------------|-------8-8-8-6~--------5-5-5-3~--------------------------|-------7-7-7-7~--------7-7-7-7~--------------------------|-------0-----0~--------0-----0~--------------------------|-0-0-0-----------0-0-0-----------------------------------|-0-0-0-----------0-0-0-----------------------------------
|--------------------------------------------------------|--------------------------------------------------------|----------------10-9--------------------10-9------------|----------10h12------10-----------10h12------10---------|----10h12-------------------10h12-----------------------|-8~----------------------8~-----------------------------
Gtr. 2|--------------------------------------------------------|--------------------------------------------------------|--------------------------------------------------------|--------------------------------------------------------|-8~--8-8-8-8-8~--8-8-8-8-8~--8-8-8-8-8~--8-8-8-8--------|-8~--8-8-8-8-8~--8-8-8-8-8~--8-8-8-8-8~--8-8-8-8--------
Gtrs. 1 and 2|--------------------------------------------------------|-------8-8-8-7~--------8-8-8-15-15-15-15----------------|-------7-7-7-7~--------7-7-7-15-15-15-15----------------|-------0-----0~--------0--------------------------------|-0-0-0-----------0-0-0----------------------------------|-0-0-0-----------0-0-0----------------------------------
Chorus
Gtr. 1|--------------------------------------------------------|--------------------------------------------------------|--------------------------------------------------------|--------------------------------------------------------|-1-1-1-1-1-1------1-1-1-1--------6----------------------|-1-1-1-1-1-1-/7-8-1-1-1-1-/7-8-5------------------------
Gtr. 2|--------------------------------------------------------|--------------------------------------------------------|-------------10h12-12-12--------------------------------|-10h12-12-12-------------10h12-12-12------10h12-12-12---|--------------------------------------------------------|-------------------------------------/7-8---------------
|--------------------------------------------------------|--------------------------------------------------------|--10h12-12-12-------------------------------------------|--------------------------------------------------------|----------------------6---------------------------------|---------------/7-8-5-----------------------------------
Gtrs. 1 and 2|------------------------------------------------------------------|------------------------------------------------------------------|------------------------------------------------------------------|------------------------------------------------------------------|----------0-12-13---------0-12-13---------0-12-13---------13-12-0-|--0-13-12---------0-13-12---------0-13-12---------0-12-13---------
Gtr. 1|------------------------------------------------------------------|------------------------------------------------------------------|------------------------------------------------------------------|------------------------------------------------------------------|--0---------------0---------------0--------------1-1-1------------|--0---------------0---------------0--------------1-1-1------------
Gtr.2|------------------------------------------------------------------|------------------------------------------------------------------|------------------------------------------------------------------|------------------------------------------------------------------|----------0-12-13---------0-12-13---------0-12-13---------0-12-13-|--0-13-12---------0-13-12---------0-13-12---------0-13-12---------
After the chorus
Gtrs. 1 and 2|------------------------------------------------------------------|------------------------------------------------------------------|------------------------------------------------------------------|----7-------7---------7-------7-----------------------------------|--0-5-0-0-0-5-------0-5-0-0-0-5-----------------------------------|--0---0-0-0---5-7-8-0---0-0-0---5~-7~-8~--------------------------
After this part everything is played again...Just listen to the song to figure out the pattern in which it goes Outro Chorus?
Gtr. 1|--------------------------------------------------------------------------|--------------------------------------------------------------------------|--------------------------------------------------------------------------|--------------------------------------------------------------------------|--5-5-5-5-5-5-5-5-5-5-5-5-0-0-0-0-0-0-0-0-0-0-0-0-1-1-1-1-1-1-1-1-1-1-1-1-|--5-5-5-5-5-5-5-5-5-5-5-5-3-3-3-3-3-3-3-3-3-3-3-3-1-1-1-1-1-1-1-1-1-1-1-1-
|--------------------------------------------------------------------------|--------------------------------------------------------------------------|--------------------------------------------------------------------------|--------------------------------------------------------------------------|--0-0-0-0-0-0-0-0-0-0-0-0-------------------------------------------------|--3-3-3-3-3-3-3-3-3-3-3-3-------------------------------------------------
Gtr. 2- plays this throughout the outro chorus|---------------------------------------------|---------------------------------------------|---------------------------------------------|---------------------------------------------|---------12-13-12----------------------------|-0-12-13-------------------------------------
That's it! Enjoy this awesome song.
Please rate this tab:
x1.0