Through The Eyes Of The Dead - Beneath Dying Skies tab

Tuning: Drop B
Song- Beneath Dying Skies
Band- Through The Eyes Of The Dead
Album- Bloodlust
Tabbed By- Cj Crovo (Crovo717)

Email to Crovo717@live.com with any questions

Listen to The Song

.= palm mute
h= hammer on
p= pull off


Guitars I & II

D|---------------------------------------|A|---------------------------------------|F|----------3-5----------------3-5-------|C|-0---0-0--3-5--3-2--0---0-0--3-5---3-2-|G|-0---0-0--1-3-------0---0-0--1-3-------|C|-0---0-0------------0---0-0------------| . . . .
Guitar I
|----------------------------------------||----------------------------------------||---------3---5----------------3-5-------||-0---0-0-3---5--3-2--0---0-0--3-5---3-2-||-0---0-0-1---3-------0---0-0--1-3-------||-0---0-0-------------0---0-0------------| . . . .
Guitar II Tremolo Pick It All(16th's) [Play 2x]|---------------------------------|\|---------------------------------| \ |---------------------------------| \|-0-0-0-0-8-8-8-8-7-7-7-7-5-5-5-5-| \|---------------------------------| \ |---------------------------------| \
| |
|---------------------------------| ||---------------------------------| ||---------------------------------| ||-3-3-3-3-3-3-5-5-2-2-2-2-2-2-2-2-| ||---------------------------------| ||---------------------------------| |
| |
|---------------------------------| ||---------------------------------| | |---------------------------------| ||-0-0-0-0-8-8-8-8-7-7-7-7-5-5-5-5-| ||---------------------------------| ||---------------------------------| |
| |
|-----------------------------------| ||-----------------------------------| /|-----------------------------------| /|-8-8-8-8-8-8-8-8-10-10-7-7-7-7-7-7-| /|-----------------------------------| /|-----------------------------------|/
Guitars 1 & 2 [Play 4x]
|------------------------------------|\|------------------------------------| \|------------------------------------| \|------------------------------------| \|-5p0-7p0-8p0-5p0-7p0-10p0-8p0-7p0---| ||------------------------------------| |
| || ||-----------------------------| /|-----------------------------| /|-----------------------------| /|-----------------------------| /|-----7p0-8p0------8p0-7p0-5--| /|-8-----------8-10------------|/
Play This 2x |------------------------------------|\|------------------------------------| \|------------------------------------| \|------------------------------------| \|-5-5-7-7-8-8-5-5-7-7-10-10-8-8-7-7--| ||------------------------------------| |
| || ||-----------------------------------| ||-----------------------------------| ||-----------------------------------| /|-----------------------------------| /|-----7-7-8-8-----------8-8-7-7-5-5-| /|-8-8---------8-8-10-10-------------|/
Guitar 1
|--------------------------||--------------------------||--------------------------||--------------------------||-5--7--8--5--7--10--8--7--||--------------------------|
| |
|--------------------------||--------------------------||--------------------------||--------------------------||---7--8-------8--7--5-----||-8-------8-10-------------|
Guitar 2
|-------------------------||-------------------------||-------------------------||-3--5--7--3--5--8--7--5--||-------------------------||-------------------------|
| |
|-------------------------||-------------------------||-------------------------||-3--5--7--2--3--7--5--2--||-------------------------||-------------------------|
Guitar I & II
|--------------------------||--------------------------||--------------------------||-0----0-0-0--0-0-0--0-0-0-||-0----0-0-0--0-0-0--0-0-0-||-0----0-0-0--0-0-0--0-0-0-|
* * * * * * * * * *|--------------------------||--------------------------||--------------------------||-0-0-0--0-0-0--0-0-0------||-0-0-0--0-0-0--0-0-0------||-0-0-0--0-0-0--0-0-0------| * * * * * * * * *
Guitar I
[Play 8x}|--------------------------||--------------------------||--------------------------||-0-0-0--0-0-0--0-0-0------||-0-0-0--0-0-0--0-0-0------||-0-0-0--0-0-0--0-0-0------| * * * * * * * * * Guitar II
|---------------------------------||---------------------------------||---------------------------------||---------7h8-----7-8-5-7-3-5-3---||-5-5-7h8----7h8----------------5-||---------------------------------|
|---------------------------------||---------------------------------||---------------------------------||---------7h8-----7-8-5-7-3-5-3---||-----7h8-----7h8---------------5-||-8-8-----------------------------|
|-----------------------------------||-----------------------------------||-----------------------------------||-----------7h8-----7-8-5-7-3-5-3---||-------7h8-----7h8---------------5-||-10-10-----------------------------|
Guitar 1
|------------------------------||------------------------------||------------------------------||-0------0------8------10------||-0------0------8------10------||-0------0------8------10------|
Guitar 2
[Play 2x}|-------------------------------||-------------------------------||-------------------------------||-----8---7-------8---7---7h8---||-------------------------------||-0-0---0-----0-0---0---0-------|
|-------------------------------||-------------------------------||-------------------------------||-----8---7-------8---7---7h8---||-------------------------------||-8-8---8-----8-8---8---8-------|
|--------------------------------------||--------------------------------------||--------------------------------------||-------8----7----------8----7---7h8---||--------------------------------------||-10-10---10------10-10---10---10------|
Guitars 1 & 2
Play 4x|-------------------------------| \|-------------------------------| \|-------------------------------| \ |-0--0-0-0-0-0-0---7-8-5-7-3-5-2| \|-0--0-0-0-0-0-0----------------| \|-0--0-0-0-0-0-0----------------| |
. . . . . . | | ||----------------------------------| ||----------------------------------| ||-3--3-3-3--------5--5-5-5---------| ||-3--3-3-3-2-3-5--5--5-5-5-5-3-2---| /|-1--1-1-1--------3--3-3-3---------| /|----.-.-.-----------.-.-.---------|/
|----------------------------||----------------------------||----------------------------||-0-0-0-0-0-0-0-0------------||-0-0-0-0-0-0-0-0------------||-0-0-0-0-0-0-0-0------------| . . . . . . . .
|----------------------------||----------------------------||----------------------------||-0-0-0-0-0-0-0-0------------||-0-0-0-0-0-0-0-0------------||-0-0-0-0-0-0-0-0------------| . . . . . . . .
[Play 4x]|--------------------------------||--------------------------------||--------------------------------||-0-0-0-0-0-0-0-0-0--------------||-0-0-0-0-0-0-0-0-0--------------||-0-0-0-0-0-0-0-0-0--------------| . . . . . . . . .
Guitar I
[Play 4x]|--------------------------------||--------------------------------||--------------------------------||-0-0-0-0-0-0-0-0-0--------------||-0-0-0-0-0-0-0-0-0--------------||-0-0-0-0-0-0-0-0-0--------------| . . . . . . . . . Guitar 2
[Play 4x]|--------------------------------||--------------------------------||--------------------------------||-0-0-0-0-0-0-0-0-0---0-0--0--0--||-0-0-0-0-0-0-0-0-0---0-0--0--0--||-0-0-0-0-0-0-0-0-0---0-0--0--0--| . . . . . . . . . . . . .
Guitar I & II
|-----------------------------||-----------------------------||-----------------------------||-0-------------0-------------||-0-------------0-------------||-0--0-0-0-1-4--0--0-0-0-1-4--| * *
|----------------------------||----------------------------||----------------------------||-0--------------------------||-0--------------------------||-0--0-0-0-1-4--0-1-4—0-1-5--|
|---------------------------------||---------------------------------||---------------------------------||---------------------------------||---------------------------------||-0-0-0-0-0-0-0-0-4-4-4-4-4-4-4-4-|
|---------------------------------||---------------------------------||---------------------------------||---------------------------------||---------------------------------||-1-1-1-1-1-1-1-1-5-5-5-5-5-5-5-5-|
|---------------------------------||---------------------------------||---------------------------------||---------------------------------||---------------------------------||-0-0-0-0-0-0-0-0-4-4-4-4-4-4-4-4-|
|-----------------------------------||-----------------------------------||-----------------------------------||-----------------4--1--0--5--1--0--||-----------------4--1--0--5--1--0--||-1-1-1-1-1-1-1-1-4—-1--0--5--1--0--|
|---------------------------------||---------------------------------||---------------------------------||---------------------------------||---------------------------------||-0-0-0-0-0-0-0-0-4-4-4-4-4-4-4-4-|
|---------------------------------||---------------------------------||---------------------------------||---------------------------------||---------------------------------||-1-1-1-1-1-1-1-1-5-5-5-5-5-5-5-5-|
|---------------------------------||---------------------------------||---------------------------------||---------------------------------||---------------------------------||-0-0-0-0-0-0-0-0-4-4-4-4-4-4-4-4-|
|-----------------------------------||-----------------------------------||-----------------------------------||-----------------4--1--0--5--1--0--||-----------------4--1--0--5--1--0--||-1-1-1-1-1-1-1-1-4—-1--0--5--1--0--|
|-------------------||-------------------||-------------------||-4--1--0--5--1--0--||-4--1--0--5--1--0--||-4--1--0--5--1--0--|
|--------------------------------------------------||--------------------------------------------------||-------------------7-7-7--------------------------||-------0-0-0-7-7-7--------4-1-0-5-1-0-4-1-0-5-1-0-||--------------------------4-1-0-5-1-0-4-1-0-5-1-0-||-0-0-0--------------------4-1-0-5-1-0-4-1-0-5-1-0-|
| |
|--------------------------------------------------||--------------------------------------------------||-------------------9-9-9--------------------------||-------0-0-0-7-7-7--------4-1-0-5-1-0-4-1-0-5-1-0-||--------------------------4-1-0-5-1-0-4-1-0-5-1-0-||-0-0-0--------------------4-1-0-5-1-0-4-1-0-5-1-0-| |-------triplets the second time
|---------------------------||---------------------------||---------------------------||-4-1-0-5-1-0-4-1-0-5-1-0-0-||-4-1-0-5-1-0-4-1-0-5-1-0-0-||-4-1-0-5-1-0-4-1-0-5-1-0-0-|----------------------------|
Tap to rate this tab
 
# A B C D E F G H I J K L M N O P Q R S T U V W X Y Z