Through The Eyes Of The Dead - Force Fed Trauma tab

Band - Through the Eyes of the Dead
Album - Bloodlust
Song - Force Fed Trauma
Transcribed by - Bryan H. and Ty B.

Gtr I & II (B F# B E G# C#) Q=138 4/4 Gtr I PM||------------|-----------|-----------------|-------------------||------------|-----------|-----------------|-------------------||-7----------|-----------|-2---------------|-(2)---------------||-7----------|-8----7----|-0---------------|-(0)---------------||-5------0-0-|-8----7----|-0---------------|-(0)---------------||--------0-0-|-8----7----|-0---------------|-(0)---------------|
|
| Gtr II| PM||------------|-----------|-----------------|-------------------||------------|-----------|-----------------|-------------------||-7----------|-----------|------11-12-12-7-|--8--11-11-8-7-8-7-||-7----------|-8----7----|-0---------------|-------------------||-5------0-0-|-8----7----|-0---------------|-------------------||--------0-0-|-8----7----|-0---------------|-------------------|
PM||--------------|-----------|------------------|------------------------||--------------|-----------|------------------|------------------------||--7-----------|-----------|-2----------------|-(2)--------------------||--7-----------|-8----7----|-0----------------|-(0)--------------------||--5-------0-0-|-8----7----|-0----------------|-(0)--------------------||----------0-0-|-8----7----|-0----------------|-(0)--------------------|
|
| PM||--------------|-----------|------------------|------------------------||--------------|-----------|------------------|------------------------||-(7)----------|-----------|------10-11-14-12-|-12--15-15-14-14S15S14--||--7-----------|-8----7----|-0----------------|------------------------||--5-------0-0-|-8----7----|-0----------------|------------------------||----------0-0-|-8----7----|-0----------------|------------------------|
PM|||-------------|-----------|-----------------|---------------------|||o------------|-----------|-----------------|---------------------|||--7----------|-----------|-2---------------|-(2)-----------------|||--7----------|-8----7----|-0---------------|-(0)-----------------|||o-5------0-0-|-8----7----|-0---------------|-(0)-----------------|||---------0-0-|-8----7----|-0---------------|-(0)-----------------|
|
| PM|||-------------|-----------|-----------------|---------------------|||o------------|-----------|------10S11-11-7-|--8--10-10-8-7-8-7---|||--7----------|-----------|------11S12-12-7-|--8--11-11-8-7-8-7---|||--7----------|-8----7----|-0---------------|---------------------|||o-5------0-0-|-8----7----|-0---------------|---------------------|||---------0-0-|-8----7----|-0---------------|---------------------|
PM||------------|-----------|------------------|-------------------------|||------------|-----------|------------------|------------------------o|||-7----------|-----------|-2----------------|-(2)---------------------|||-7----------|-8----7----|-0----------------|-(0)---------------------|||-5------0-0-|-8----7----|-0----------------|-(0)--------------------o|||--------0-0-|-8----7----|-0----------------|-(0)---------------------||
|
| PM||------------|-----------|------------------|-------------------------|||------------|-----------|-------9-10-13-11-|-11--14-14-13-13-14-13--o|||-7----------|-----------|------10-11-14-12-|-12--15-15-14-14-15-14---|||-7----------|-8----7----|-0----------------|-------------------------|||-5------0-0-|-8----7----|-0----------------|------------------------o|||--------0-0-|-8----7----|-0----------------|-------------------------||
|---------------------------------|-------------------------------------||---------------------------------|-------------------------------------||---------------------------------|-------------------------------------||---------------------------------|-------------------------------------||-----8-8-7-7-5-5-5-5-4-4-5-5-7-7-|-----8-8-7-7-5-5-10-10-8-8-7-7-8-8---||-0-0-----------------------------|-0-0---------------------------------|
|
| PM--------------------------------------------------------------||---------------------------------|-------------------------------------||---------------------------------|-------------------------------------||---------------------------------|-------------------------------------||---------------------------------|-------------------------------------||-0---------------------------0---|-0----------------0----0---0---0-----||-0---------------------------0---|-0----------------0----0---0---0-----|
|---------------------------------|-----------||---------------------------------|-----------||---------------------------------|-----------||---------------------------------|-3----2----||-----8-8-7-7-5-5-5-5-4-4-5-5-7-7-|-3----2----||-0-0-----------------------------|-3----2----|
|
| PM--------------------------||---------------------------------|-----------||---------------------------------|-----------||---------------------------------|-----------||---------------------------------|-3----2----||-0---------------------------0---|-3----2----||-0---------------------------0---|-3----2----|
||------------------------------------|||o-----------------------------------|||------------------------------------|||------------------------------------|||o-----8-8-7-7-5-5-5-5-4-4-5-5-7-7---|||--0-0-------------------------------|
|
||------------------------------------|||o-----------------------------------|||------------------------------------|||------------------------------------|||o-----5-5-4-4-2-2-2-2-1-1-2-2-4-4---|||--0-0-------------------------------|
|-----------------------------------||-----------------------------------||-----------------------------------||-----------------------------------||-----8-8-7-7-5-5-10-10-8-8-7-7-8-8-||-0-0-------------------------------|
|
|-----------------------------------||-----------------------------------||-----------------------------------||-----------------------------------||-----5-5-4-4-2-2--7--7-5-5-4-4-5-5-||-0-0-------------------------------|
|---------------------------------|-----------------------------|||---------------------------------|----------------------------o|||---------------------------------|-----------------------------|||---------------------------------|-----------------------------|||-----8-8-7-7-5-5-5-5-4-4-5-5-7-7-|-3-3-5-5-7-8-2-2-4-4-5-7----o|||-0-0-----------------------------|-3-3---------2-2-------------||
|
|---------------------------------|-----------------------------|||---------------------------------|----------------------------o|||---------------------------------|-----------------------------|||---------------------------------|-----------------------------|||-----5-5-4-4-2-2-2-2-1-1-2-2-4-4-|-3-3-2-2-4-5-2-2-1-1-2-4----o|||-0-0-----------------------------|-3-3---------2-2-------------||
Gtrs I, II|-------------------------------||-------------------------------||-------------------------------||-------------------------------||---------------8-----8-----7---||-0-0-0-0-0-0-0---0-0---0-0---0-|
|-------------------------------|-------------------------------||-------------------------------|-------------------------------||-------------------------------|-------------------------------||-------------------------------|-------------------------------||---------------8-----8-----4-7-|---------------8-----8-----7---||-0-0-0-0-0-0-0---0-0---0-0-----|-0-0-0-0-0-0-0---0-0---0-0---0-|
Gtr I|---------------------------------|----------------------------------||---------------------------------|----------------------------------||---------------------------------|----------------------------------||---------------------------------|----------------------------------||-5-5-5-5-5-5-7-7-8-8-8-8-7-7-7-7-|----------------8------8------7---||---------------------------------|-0-0-0-0-0-0-0----0-0----0-0----0-|
|
| Gtr II|---------------------------------|----------------------------------||---------------------------------|----------------------------------||---------------------------------|----------------------------------||---------------------------------|----------------------------------||-2-2-2-2-2-2-4-4-5-5-5-5-4-4-4-4-|---------------12-----12-----10---||---------------------------------|-0-0-0-0-0-0-0----0-0----0-0----0-|
|------------------------------------||------------------------------------||------------------------------------||------------------------------------||----------------8------8------4-7---||-0-0-0-0-0-0-0----0-0----0-0--------|
|
|------------------------------------||------------------------------------||------------------------------------||------------------------------------||---------------13-----13-----12-----||-0-0-0-0-0-0-0----0-0----0-0----0---|
|----------------------------------|------------------------------------||----------------------------------|------------------------------------||----------------------------------|------------------------------------||----------------------------------|------------------------------------||----------------8------8------7---|-5-5-5-5-5-5-7-7-8-8-8-8-7-7-7-7----||-0-0-0-0-0-0-0----0-0----0-0----0-|------------------------------------|
|
|----------------------------------|------------------------------------||----------------------------------|------------------------------------||----------------------------------|------------------------------------||----------------------------------|------------------------------------||---------------12-----12-----10---|-2-2-2-2-2-2-4-4-5-5-5-5-4-4-4-4----||-0-0-0-0-0-0-0----0-0----0-0----0-|------------------------------------|
||--------------------|---------------------|||o-------------------|---------------------|||--------------------|---------------------|||--------------------|---------------------|||o-----7-5------8-7--|-----10-8------7-4-5-|||--0-0------0-0------|-0-0-------0-0-------|
|
||--------------------|---------------------|||o-------------------|---------------------|||--------------------|---------------------|||--------------------|---------------------|||o-----7-5------8-7--|-----10-8------7-4-5-|||--0-0------0-0------|-0-0-------0-0-------|
1.|-------------------|---------------------------------------|||-------------------|--------------------------------------o|||-------------------|---------------------------------------|||-------------------|---------------------------------------|||-----7-5------8-7--|-----7-7-8-8-12-12-10-10-8-8-7-7-8-8--o|||-0-0------0-0------|-0-0-----------------------------------||
|
|-------------------|---------------------------------------|||-------------------|--------------------------------------o|||-------------------|---------------------------------------|||-------------------|---------------------------------------|||-----7-5------8-7--|-----4-4-5-5--8--8--7--7-5-5-4-4-5-5--o|||-0-0------0-0------|-0-0-----------------------------------||
2.|---------------------------------||----------------------------------||---------------------------------||o---------------------------------||---------------------------------||----------------------------------||---------------------------------||----------------------------------||-----4-4-5-5-8-8-----4-4-5-5-7-7-||o-----8-8-7-7-5-5-5-5-4-4-5-5-7-7-||-0-0-------------0-0-------------||--0-0-----------------------------|
|
|---------------------------------||----------------------------------||---------------------------------||o---------------------------------||---------------------------------||----------------------------------||---------------------------------||----------------------------------||-----1-1-2-2-5-5-----1-1-2-2-4-4-||o-----5-5-4-4-2-2-2-2-1-1-2-2-4-4-||-0-0-------------0-0-------------||--0-0-----------------------------|
|-----------------------------------||-----------------------------------||-----------------------------------||-----------------------------------||-----8-8-7-7-5-5-10-10-8-8-7-7-8-8-||-0-0-------------------------------|
|
|-----------------------------------||-----------------------------------||-----------------------------------||-----------------------------------||-----5-5-4-4-2-2--7--7-5-5-4-4-5-5-||-0-0-------------------------------|
|---------------------------------||---------------------------------||---------------------------------||---------------------------------||-----8-8-7-7-5-5-5-5-4-4-5-5-7-7-||-0-0-----------------------------|
|
|---------------------------------||---------------------------------||---------------------------------||---------------------------------||-----5-5-4-4-2-2-2-2-1-1-2-2-4-4-||-0-0-----------------------------|
|--------------------------||---------------------------------||-------------------------o||---------------------------------||--------------------------||---------------------------------||--------------------------||---------------------------------||-3-3-5-5-7-8-2-2-4-4-5-7-o||---------------8-----8-----7-----||-3-3---------2-2----------||-0-0-0-0-0-0-0---0-0---0-0---0---|
|
|--------------------------||---------------------------------||-------------------------o||---------------------------------||--------------------------||---------------------------------||--------------------------||---------------------------------||-3-3-2-2-4-5-2-2-1-1-2-4-o||---------------8-----8-----7-----||-3-3---------2-2----------||-0-0-0-0-0-0-0---0-0---0-0---0---|
|-------------------------------|-------------------------------||-------------------------------|-------------------------------||-------------------------------|-------------------------------||-------------------------------|-------------------------------||---------------8-----8-----4-7-|---------------8-----8-----7---||-0-0-0-0-0-0-0---0-0---0-0-----|-0-0-0-0-0-0-0---0-0---0-0---0-|
|
|-------------------------------|-------------------------------||-------------------------------|-------------------------------||-------------------------------|-------------------------------||-------------------------------|-------------------------------||---------------8-----8-----4-7-|---------------8-----8-----7---||-0-0-0-0-0-0-0---0-0---0-0-----|-0-0-0-0-0-0-0---0-0---0-0---0-|
|-----------------------------------||-----------------------------------||-----------------------------------||-----------------------------------||-5-5-5-5-5-5-7-7-8-8-8-8-7-7-7-7---||-----------------------------------|
|
|-----------------------------------||-----------------------------------||-----------------------------------||-----------------------------------||-2-2-2-2-2-2-4-4-5-5-5-5-4-4-4-4---||-----------------------------------|
|----------------------------------||----------------------------------||----------------------------------||----------------------------------||----------------8------8------7---||-0-0-0-0-0-0-0----0-0----0-0----0-|
|
|----------------------------------||----------------------------------||----------------------------------||----------------------------------||---------------12-----12-----10---||-0-0-0-0-0-0-0----0-0----0-0----0-|
|----------------------------------|----------------------------------||----------------------------------|----------------------------------||----------------------------------|----------------------------------||----------------------------------|----------------------------------||----------------8------8------4-7-|----------------8------8------7---||-0-0-0-0-0-0-0----0-0----0-0------|-0-0-0-0-0-0-0----0-0----0-0----0-|
|
|----------------------------------|----------------------------------||----------------------------------|----------------------------------||----------------------------------|----------------------------------||----------------------------------|----------------------------------||---------------13-----13-----12---|---------------12-----12-----10---||-0-0-0-0-0-0-0----0-0----0-0----0-|-0-0-0-0-0-0-0----0-0----0-0----0-|
|---------------------------------||---------------------------------||---------------------------------||---------------------------------||-5-5-5-5-5-5-7-7-8-8-8-8-7-7-7-7-||---------------------------------|
|
|---------------------------------||---------------------------------||---------------------------------||---------------------------------||-2-2-2-2-2-2-4-4-5-5-5-5-4-4-4-4-||---------------------------------|
|----------------------------|-------------------------------||----------------------------|-------------------------------||----------------------------|-------------------------------||-0-0------------------------|-0-0---------------------------||-0-0-8-----7-----10-8-7-8-7-|-0-0-8-----7-----5-5-7-7-8-8---||-0-0---0-0---0-0------------|-0-0---0-0---0-0---------------|
|
|----------------------------|-------------------------------||----------------------------|-------------------------------||----------------------------|-------------------------------||----------------------------|-------------------------------||-0-0------------------------|-0-0-------------2-2-4-4-5-5---||-0-0------------------------|-0-0---------------------------|
PM--------------------||-----------------------------|-----------------------------||-----------------------------|-----------------------------||-----------------------------|-----------------------------||-2-2-------------------------|-3-3-------------------------||-2-2-5-----4-----8-7-5-7-5---|-3-3-5-----4-----4-4-5-5-7-7-||-2-2---0-0---0-0-------------|-3-3---0-0---0-0-------------|
|
| PM--------------------| PM--------||-----------------------------|-----------------------------||-----------------------------|-----------------------------||-----------------------------|-----------------------------||-2-2-------------------------|-3-3-------------------------||-2-2-2-2-2-2-2-2-2-2-2-2-2-2-|-3-3-3-3-3-3-3-3-1-1-2-2-4-4-||-2-2-2-2-2-2-2-2-2-2-2-2-2-2-|-3-3-3-3-3-3-3-3-------------|
||-------------------------------|||o------------------------------|||-------------------------------|||--0-0--------------------------|||o-0-0-8-----7-----10-8-7-8-7---|||--0-0---0-0---0-0--------------|
|
| PM---------------------|||-------------------------------|||o------------------------------|||-------------------------------|||--0-0--------------------------|||o-0-0-0-0-0-0-0-0--0-0-0-0-0-0-|||--0-0-0-0-0-0-0-0--0-0-0-0-0-0-|
|-----------------------------|-----------------------------||-----------------------------|-----------------------------||-----------------------------|-----------------------------||-0-0-------------------------|-2-2-------------------------||-0-0-8-----7-----5-5-7-7-8-8-|-2-2-5-----4-----8-7-5-7-5---||-0-0---0-0---0-0-------------|-2-2---0-0---0-0-------------|
|
| PM--------| PM--------------------||-----------------------------|-----------------------------||-----------------------------|-----------------------------||-----------------------------|-----------------------------||-0-0-------------------------|-2-2-------------------------||-0-0-0-0-0-0-0-0-2-2-4-4-5-5-|-2-2-2-2-2-2-2-2-2-2-2-2-2-2-||-0-0-0-0-0-0-0-0-------------|-2-2-2-2-2-2-2-2-2-2-2-2-2-2-|
PM--------------------|
3x|------------------------------|||-----------------------------o|||------------------------------|||-3-3--------------------------|||-3-3-5-----4-----4-4-5-5-7-7-o|||-3-3---0-0---0-0--------------||
| | PM--------|
| 3x|------------------------------|||-----------------------------o|||------------------------------|||-3-3--------------------------|||-3-3-3-3-3-3-3-3-1-1-2-2-4-4-o|||-3-3-3-3-3-3-3-3--------------||
Q=135---------------------------------------------------------------------||---------||------------------------------|-------------------------------|||---------||o-----------------------------|------------------------------o|||---------||------------------------------|-------------------------------|||---------||--0-----0-0-----0-----0-0-----|-0-----0-0-----0-----0-0-------|||---------||o-0-----0-0-----0-----0-0-----|-0-----0-0-----0-----0-0------o|||---------||--0-----0-0-----0-----0-0-----|-0-----0-0-----0-----0-0-------||
|
| PM-------------------------------------------------------||---------||------------------------------|-------------------------------|||---------||o-----------------------------|------------------------------o|||---------||------------------------------|-------------------------------|||---------||-----0-------0-----0-------0--|----0-------0-----0-------0----|||---------||o----0-------0-----0-------0--|----0-------0-----0-------0---o|||---------||-----0-------0-----0-------0--|----0-------0-----0-------0----||
---------------------------------------------------------M|-----------------------------|-----------------------------||-----------------------------|-----------------------------||-----------------------------|-----------------------------||-0-----0-0-----0-----0-0-----|-0-----0-0-----0-----0-0-----||-0-----0-0-----0-----0-0-----|-0-----0-0-----0-----0-0-----||-0-----0-0-----0-----0-0-----|-0-----0-0-----0-----0-0-----|
|
| PM PM|-----------------------------|-----------------------------||-----------------------------|-----------------------------||-----------------------------|-----------------------------||----0-------0-----0-------0--|----0-------0-----0-------0--||----0-------0-----0-------0--|----0-------0-----0-------0--||----0-------0-----0-------0--|----0-------0-----0-------0--|
---------------------------------------------------------||-----------------------------|-----------------------------||-----------------------------|-----------------------------||-----------------------------|-----------------------------||-0-----0-0-----0-----0-0-----|-0-----0-0-----0-----0-0-----||-0-----0-0-----0-----0-0-----|-0-----0-0-----0-----0-0-----||-0-----0-0-----0-----0-0-----|-0-----0-0-----0-----0-0-----|
|
| PM-------------------------------------------------------||-----------------------------|-----------------------------||-----------------------------|-----------------------------||-----------------------------|-----------------------------||----0-------0-----0-------0--|----0-------0-----0-------0--||----0-------0-----0-------0--|----0-------0-----0-------0--||----0-------0-----0-------0--|----0-------0-----0-------0--|
Q=114|--------------------------------------------||--------------------------------------------||--------------------------------------------||--------------------------------------------||-0--------------------------------------0-0-||-0--------------------------------------0-0-|
|
| TP|--------------------------------------------||--------------------------------------------||--------------------------------------------||-------------------------7-7-7--------------||-------5-5-5-7-7-7-8-8-8-------5-5-5-8\---0-||-0-0-0--------------------------------------|
|--------------------------------------------------||--------------------------------------------------||--------------------------------------------------||--------------------------------------------------||--------------------------------------------------||-0-0-0-9-9-9-5-5-5-0-0-0-9-9-9-5-5-5-2-2-2-9-9-9--|
|
|--------------------------------------------------||--------------------------------------------------||--------------------------------------------------||--------------------------------------------------||--------------------------------------------------||-0-0-0-9-9-9-5-5-5-0-0-0-9-9-9-5-5-5-2-2-2-9-9-9--|
Gtrs I, II|-------------------------------------------------------||-------------------------------------------------------||-------------------------------------------------------||-------------------------------------------------------||-------------------------------------------------------||-3-3-3-10-10-10-9-9-9-5-5-5-10-10-10-9-9-9-5-5-5-9-9-9-|
TP|---------------------------------------------||---------------------------------------------||---------------------------------------------||-------------------------7-7-7---------------||-------5-5-5-7-7-7-8-8-8-------5-5-5-8\-0-0--||-0-0-0----------------------------------0-0--|
|-------------------------------------------------||-------------------------------------------------||-------------------------------------------------||-------------------------------------------------||-------------------------------------------------||-0-0-0-9-9-9-5-5-5-0-0-0-9-9-9-5-5-5-2-2-2-9-9-9-|
|--------------------------------------------------------||--------------------------------------------------------||--------------------------------------------------------||--------------------------------------------------------||--------------------------------------------------------||-3-3-3-10-10-10-9-9-9-5-5-5-10-10-10-9-9-9-5-5-5-9-9-9--|
Gtr I-----------------------------------------------------||--------------------------------------------------|||o-------------------------------------------------|||--------------------------------------------------|||--------------------------------------------------|||o-0-----0-----0---0---0-----0-----0-----0--0-0----|||--0-----0-----0---0---0-----0-----0-----0--0-0----|
|
| Gtr II| TP||--------------------------------------------------|||o-------------------------------------------------|||--------------------------------------------------|||----------------------------7-7-7-----------------|||o-------5-5-5-7-7---7-8-8-8-------5-5-5-8\-----0--|||--0-0-0-------------------------------------------|
---------------------------------------TP TP TP|--------------------------------------------------------||--------------------------------------------------------||--------------------------------------------------------||--------------------------------------------------------||-0-----0-----0---0---0-----0-----0-----0---0---0--------||-0-----0-----0---0---0-----0-----0-----0---0---0--------|
|
|--------------------------------------------------------||--------------------------------------------------------||--------------------------------------------------------||--------------------------------------------------------||--------------------------------------------------------||-0-0-0-9-9-9-5-5---5-0-0-0-9-9-9-5-5-5-2-2---2-9-9-9----|
----------------------------------------------TP TP TP|------------------------------------------------------------|||-----------------------------------------------------------o|||------------------------------------------------------------|||------------------------------------------------------------|||-0------0-------0---0---0------0-------0-----0---0---0-----o|||-0------0-------0---0---0------0-------0-----0---0---0------||
|
|------------------------------------------------------------|||-----------------------------------------------------------o|||------------------------------------------------------------|||------------------------------------------------------------|||-----------------------------------------------------------o|||-3-3-3-10-10-10-9-9---9-5-5-5-10-10-10-9-9-9-5-5---5-9-9-9--||
|-------------------------||-------------------------||-------------------------||-------------------------||-0-0-----0-0---0-0-------||-0-0-----0-0---0-0-------|
|
| PM| PM| PM||-------------------------||-------------------------||-------------------------||-------------------------||-------------5-----4-5-7-||-0-0-8-7-0-0---0-0-------|
|-------------------------|-------------------------||-------------------------|-------------------------||-------------------------|-------------------------||-------------------------|-------------------------||-0-0-----0-0---0-0-------|-0-0-----0-0---0-0-------||-0-0-----0-0---0-0-------|-0-0-----0-0---0-0-------|
|
|-------------------------|-------------------------||-------------------------|-------------------------||-------------------------|-------------------------||-------------------------|-------------------------||-----7-5-----8-----5-7-8-|-------------5-----1-4-5-||-0-0-----0-0---0-0-------|-0-0-8-7-0-0---0-0-------|
|---------------------------||---------------------------||---------------------------||-------------7-5---7-5-----||-0-0-----0-0-----8-----8-7-||-0-0-----0-0---------------|
|
|---------------------------||---------------------------||---------------------------||---------------------------||-----5-4-----8-7-5-8-7-5-4-||-0-0-----0-0---------------|
||-----------------------------|-----------------------------|||o----------------------------|-----------------------------|||-----------------------------|-----------------------------|||-----------------------------|-----------------------------|||o-----5-4-----8-----7-8-10---|-----10-8-----12-----8-10-12-|||--0-0-----0-0---0-0----------|-0-0------0-0----0-0---------|
|
| PM| PM| PM| PM| PM| PM|||-----------------------------|-----------------------------|||o----------------------------|-----------------------------|||-----------------------------|-----------------------------|||-----------------------------|-----------------------------|||o-------------5-------4--5-7-|------7-5------8-----5--7--8-|||--0-0-8-7-0-0-----0-0--------|-0-0------0-0----0-0---------|
|-------------------------|-----------------------------|||-------------------------|----------------------------o|||-------------------------|-----------------------------|||-------------------------|-------------7-5---7-5-------|||-----5-4-----8-----4-5-8-|-----8-7---------8-----8-7--o|||-0-0-----0-0---0-0-------|-0-0-----0-0-----------------||
|
| PM| PM| PM| PM| PM||-------------------------|-----------------------------|||-------------------------|----------------------------o|||-------------------------|-----------------------------|||-------------------------|-----------------------------|||-------------5-----1-4-5-|-----5-4-----8-7-5-8-7-5-4--o|||-0-0-8-7-0-0---0-0-------|-0-0-----0-0-----------------||
Q=101|-----------------------|-----------------------||-----------------------|-----------------------||-----------------------|-----------------------||-----------------------|-----------------------||-----------------------|-0--2--3-2--3--4-3--2--||-----------------------|-0--2--3-2--3--4-3--2--|
|
|-----------------------|-----------------------||-----------------------|-----------------------||-----------------------|-----------------------||-----------------------|-----------------------||-0--2--3-2--3--4-3--2--|-----------------------||-0--2--3-2--3--4-3--2--|-----------------------|
~~~|-----------------------|---------------------------||-----------------------|---------------------------||-----------------------|---------------------------||-----------------------|--------------------<7>----||-0--2--3-2--3--4-3--2--|-0--2--3-2--3--4-3---------||-0--2--3-2--3--4-3--2--|-0--2--3-2--3--4-3---------|
|
| ~~~|-----------------------|---------------------------||-----------------------|---------------------------||-----------------------|---------------------------||-----------------------|---------------------------||-0--2--3-2--3--4-3--2--|-0--2--3-2--3--4-3--<8>----||-0--2--3-2--3--4-3--2--|-0--2--3-2--3--4-3---------|
~~~ 3x||-------------------------||------------------------|||o-----------------------o||------------------------|||-------------------------||------------------------|||-------------------------||--------------------<7>-|||o-0--2--3-2--3--4-3--2--o||-0--2--3-2--3--4-3------|||--0--2--3-2--3--4-3--2---||-0--2--3-2--3--4-3------|
|
| ~~~| 3x||-------------------------||------------------------|||o-----------------------o||------------------------|||-------------------------||------------------------|||-------------------------||------------------------|||o-0--2--3-2--3--4-3--2--o||-0--2--3-2--3--4-3--<8>-|||--0--2--3-2--3--4-3--2---||-0--2--3-2--3--4-3------|
Q=138 PM||------------|-----------|--------------------||------------|-----------|--------------------||-7----------|-----------|-2------------------||-7----------|-8----7----|-0------------------||-5------0-0-|-8----7----|-0------------------||--------0-0-|-8----7----|-0------------------|
|
| PM||------------|-----------|--------------------||------------|-----------|--------------------||-7----------|-----------|------11-12-12-7----||-7----------|-8----7----|-0------------------||-5------0-0-|-8----7----|-0------------------||--------0-0-|-8----7----|-0------------------|
PM||--------------------|------------|-----------||--------------------|------------|-----------||-(2)----------------|-7----------|-----------||-(0)----------------|-7----------|-8----7----||-(0)----------------|-5------0-0-|-8----7----||-(0)----------------|--------0-0-|-8----7----|
|
| PM||--------------------|------------|-----------||--------------------|------------|-----------||--8--11-11-8-7-8-7--|-7----------|-----------||--------------------|-7----------|-8----7----||--------------------|-5------0-0-|-8----7----||--------------------|--------0-0-|-8----7----|
|------------------|------------------------||------------------|------------------------||-2----------------|-(2)--------------------||-0----------------|-(0)--------------------||-0----------------|-(0)--------------------||-0----------------|-(0)--------------------|
|
|------------------|------------------------||------------------|------------------------||------10-11-14-12-|-12--15-15-14-14S15S14--||-0----------------|------------------------||-0----------------|------------------------||-0----------------|------------------------|
PM|||-------------|-----------|-----------------|-------------------|||o------------|-----------|-----------------|-------------------|||--7----------|-----------|-2---------------|-(2)---------------|||--7----------|-8----7----|-0---------------|-(0)---------------|||o-5------0-0-|-8----7----|-0---------------|-(0)---------------|||---------0-0-|-8----7----|-0---------------|-(0)---------------|
|
| PM|||-------------|-----------|-----------------|-------------------|||o------------|-----------|------10S11-11-7-|--8--10-10-8-7-8-7-|||--7----------|-----------|------11S12-12-7-|--8--11-11-8-7-8-7-|||--7----------|-8----7----|-0---------------|-------------------|||o-5------0-0-|-8----7----|-0---------------|-------------------|||---------0-0-|-8----7----|-0---------------|-------------------|
PM||------------|-----------|------------------|-------------------------|||------------|-----------|------------------|------------------------o|||-7----------|-----------|-2----------------|-(2)---------------------|||-7----------|-8----7----|-0----------------|-(0)---------------------|||-5------0-0-|-8----7----|-0----------------|-(0)--------------------o|||--------0-0-|-8----7----|-0----------------|-(0)---------------------||
|
| PM||------------|-----------|------------------|-------------------------|||------------|-----------|-------9-10-13-11-|-11--14-14-13-13-14-13--o|||-7----------|-----------|------10-11-14-12-|-12--15-15-14-14-15-14---|||-7----------|-8----7----|-0----------------|-------------------------|||-5------0-0-|-8----7----|-0----------------|------------------------o|||--------0-0-|-8----7----|-0----------------|-------------------------||
PM||------------|-----------|------------------|------------------------*||------------|-----------|------------------|------------------------*||-7----------|-----------|-2----------------|-(2)--------------------*||-7----------|-8----7----|-0----------------|-(0)--------------------*||-5------0-0-|-8----7----|-0----------------|-(0)--------------------*||--------0-0-|-8----7----|-0----------------|-(0)--------------------*|
|
| PM||------------|-----------|------------------|------------------------*||------------|-----------|-------9-10-13-11-|-11--14-14-13-13-14-13--*||-7----------|-----------|------10-11-14-12-|-12--15-15-14-14-15-14--*||-7----------|-8----7----|-0----------------|------------------------*||-5------0-0-|-8----7----|-0----------------|------------------------*||--------0-0-|-8----7----|-0----------------|------------------------*|
Tablature Legend ---------------- h - hammer-on p - pull-off b - bend pb - pre-bend r - bend release (if no number after the r, then release immediately) /\ - slide into or out of (from/to "nowhere") s - legato slide S - shift slide - natural harmonic [n] - artificial harmonic n(n) - tapped harmonic ~ - vibrato tr - trill T - tap TP - trem. picking PM - palm muting \n/ - tremolo bar dip; n = amount to dip \n - tremolo bar down n/ - tremolo bar up /n\ - tremolo bar inverted dip = - hold bend; also acts as connecting device for hammers/pulls <> - volume swell (louder/softer) x - on rhythm slash represents muted slash o - on rhythm slash represents single note slash Misc Legend ----------- | - bar || - double bar ||o - repeat start o|| - repeat end *| - double bar (ending) : - bar (freetime) $ - Segno & - Coda Tempo markers - = BPM(8/16=s8/s16), where s8 = swing 8ths, s16 = swing 16ths
Tap to rate this tab
 
# A B C D E F G H I J K L M N O P Q R S T U V W X Y Z