Thy Art Is Murder – Soldiers Of Immortality tab

Artist: Thy Art Is Murder
Song: Soldiers of Immortality
Tuning: Drop A - AEADGBE (Thy Art play A E A D F# B E, but I'm not tabbing like that)

Tabbed by Matt Mulartschuk

If you like Thy Art Is Murder, please check out my band as well at www.myspace.com/
onewiththeburied and add us if you like what you hear!

0.00 - 0.14|---------------------------||---------------------------||---------------------------||---------------------------||--5-555-5--------4-444-4---||--2-222-2--------1-111-1---||--2-222-2--------1-111-1---|
0.15 - 0.29|-----------------------------------||-----------------------------------||-----------------------------------||-------4"------3"------4"------3"--||-----------------------------------||-----------------------------------||--222------111-----222-----111-----|
0.30 - 0.37|-----------------------------------------||-----------------------------------------||-----------------------------------------||-----------------------------------------||-----------------------------------------||--1-------4"-------1"---------000-000----| Left then Right|----2-1-0----2-1-0----2-1-0-1-000-000----|
Played over the top of guitar 2's 2 1 0 1|------------------||------------------||------------------||------------------||------------------||-21-0-1-000-000---||-21-0-1-000-000---|
0.38 -0.51|---------------------------------------------||---------------------------------------------||---------------------------------------------||---------------------------------------------||---------------------------------------------||--1-------4"-------1"------------------------| |----2-1-0----2-1-0----2-1-0-1--2"-1"-0"-1"---|
|-----------------------------------------||-----------------------------------------||-----------------------------------------||-----------------------------------------||-----------------------------------------||--1-------4"-------1"---------000-000----| |----2-1-0----2-1-0----2-1-0-1-000-000----|
0.52 - 0.58|--------------||--------------||--------------||--------------||--5---4---7---||--2---1---4---||--2---1---4---|
0.59 - 1.11|--------------------------------||--------------------------------||--------------------------------||--------------------------------||--------------------------------||--000-000-000-33-2-0-22-1-0-1---||--000-000-000-33-2-0-22-1-0-1---|
1.12 - 1.29|---------------------------------------||---------------------------------------||---------------------------------------||---------------------------------------||---------------------------------------||-7----7-7----7----7-7----------7----8--| (2nd+ 4th time through,|---00-----00---00-----00-00-00---00----| hit 8 twice)
1.30 - 1.42|---------------------------------------||---------------------------------------||---------------------------------------||----------------------9h12-------------||-------8h11------8h11------8h11--------||--7h10------7h10----------------7h10---||---------------------------------------|
|-------------------------------------------------||-------------------------------------------------||------------------------------------------10h13--||---------------------------9h12------9h12--------||--8h11------8h11------8h11------8h11-------------||-------7h10------7h10----------------------------||-------------------------------------------------|
1.43 - 1.54|--------------------||--------------------||--------------------||--------------------||--------------------||----------4---------||--2-1-2-1---0-2-1---|
1.54 - 1.57|--------------------||--------------------||--------------------||--------------------||--1-1-1-1-1-1-1-1---||--0-0-0-0-0-0-0-0---||--1-1-1-1-1-1-1-1---|
1.58 - 2.10|-----------------------------||-----------------------------||-----------------------------||-----------------------------||--1--1-1-1---1--1-1--1-1-1---||--0--0-0-0---0--0-0--0-0-0---||--1--1-1-1---1--1-1--1-1-1---|
2.11 - 2.17|--------------------------------------------------------||--------------------------------------------------------||--------------------------------------------------------||--------------------------------------------------------||--1-1-1-1-1-1-1-1-1-1-1-1-1-1-1-1-1-1-1-1-1-1-1-1-------||--0-0-0-0-0-0-0-0-0-0-0-0-0-0-0-0-0-0-0-0-0-0-0-0-------||--1-1-1-1-1-1-1-1-1-1-1-1-1-1-1-1-1-1-1-1-1-1-1-1-[2]---|
2.10 - 2.24|-----------------------------||-----------------------------||-----------------------------||-----------------------------||--1--1-1-1---1--1-1--1-1-1---||--0--0-0-0---0--0-0--0-0-0---||--1--1-1-1---1--1-1--1-1-1---|
2.25 - 2.28|-----------------------------------------||-----------------------------------------||-----------------------------------------||-----------------------------------------||-----------------------------------------||--1-------4"-------1"---------000-000----| |----2-1-0----2-1-0----2-1-0-1-000-000----|
2.29 - 2.42|---------------------------------------------||---------------------------------------------||---------------------------------------------||---------------------------------------------||---------------------------------------------||--1-------4"-------1"------------------------| |----2-1-0----2-1-0----2-1-0-1--2"-1"-0"-1"---|
|-----------------------------------------||-----------------------------------------||-----------------------------------------||-----------------------------------------||-----------------------------------------||--1-------4"-------1"---------000-000----| |----2-1-0----2-1-0----2-1-0-1-000-000----|
2.43 - 2.56|-------------------------------------------------------------||---------------------------------------------------7h10------||-----------------------------------------------6h9------6h9--||------9"-8"-----5"-5"-8"------9"-8"-----5"-5h8---------------||-------------------------------------------------------------||-------------------------------------------------------------||--000-------000-----------000-------000----------------------|
2.57 - 3.09
Solo: |-15h18p15--------------------------------------------------||----------14h17p14-----------------------------------------||-------------------13h16p13--------------------------------||----------------------------12h15p12-----------------------||-------------------------------------11h14p11--------------||----------------------------------------------10h13p10-----||-------------------------------------------------------13--|
Haven't done the rest just yet, but I'll update it when I get around to it.
Solo Rhythm:|--------------------------------||--------------------------------||--------------------------------||--------------------------------||--------------------------------||--000-000-000-33-2-0-22-1-0-1---||--000-000-000-33-2-0-22-1-0-1---|
3.10 - EndOutro:|--------------------------------||--------------------------------||--------------------------------||--------------------------------||--------------------------------||--000-000-000-33-2-0-22-1-0-1---||--000-000-000-33-2-0-22-1-0-1---|
Please rate this tab:
x1.0