Tierra Santa - Neron tab

recomiendo escuchar la cancion para el rasgeo aunque es casi todo downstrok

0:54 --------------------------------------------------------| --------------------------------------------------------| -2/0-2-5-4--2--2/0-2--7-5--4-2-2/0-2-5-4--2-7-5-4-5-4-2-| -2/0-2-5-4--2--2/0-2--7-5--4-2-2/0-2-5-4--2-7-5-4-5-4-2-| --------------------------------------------------------| --------------------------------------------------------|
1:01 ---------------------------------------------------------| ---------------------------------------------------------| -2/0-2-5-4--2--2/0-2--7-5--4-2-2/0-2-5-4--2-10-9-7-5-4-2-| -2/0-2-5-4--2--2/0-2--7-5--4-2-2/0-2-5-4--2-10-9-7-5-4-2-| ---------------------------------------------------------| ---------------------------------------------------------|
1:08 --------------------------------------------------------| --------------------------------------------------------| -2/0-2-5-4--2--2/0-2--7-5--4-2-2/0-2-5-4--2-7-5-4-5-4-2-| -2/0-2-5-4--2--2/0-2--7-5--4-2-2/0-2-5-4--2-7-5-4-5-4-2-| --------------------------------------------------------| --------------------------------------------------------|
1:14 -----------------------------------------| -----------------------------------------| -2/0-2-5-4--2--2/0-2--7-5--4-2-2/0-2-5-4-| -2/0-2-5-4--2--2/0-2--7-5--4-2-2/0-2-5-4-| -----------------------------------------| -----------------------------------------|
----------------------------------| ----------------------------------| -2-10-9-7-5-4-2--10-9-7-5-4-2--9~-| -2-10-9-7-5-4-2--10-9-7-5-4-2--9~-| ----------------------------------| ----------------------------------|
1:27 Loco y necio... ...tierra ni cielo ------------------ -------| ------------------ -------| -2---------------- -------| -2---------------- -3--5--| -0--0-0-0-0-0-0-0- ... -3--5--| ------------------ -1--3--| . . . . . . .
1:34 sutil ignorante ...alma ni honor ------------------ -------------| ------------------ -------------| -2---------------- -------------| -2---------------- -3--3--------| -0--0-0-0-0-0-0-0- ... -3--3--------| ------------------ -1--1--*1-*3-| . . . . . . .
(*) siginifica que es un armonico
1:40 Tormento del... ...madre por nada ------------------ -------| ------------------ -------| -2---------------- -------| -2---------------- -3--5--| -0--0-0-0-0-0-0-0- ... -3--5--| ------------------ -1--3--| . . . . . . .
1:47 vendiste tu... ...una cancion ------------------ -----------| ------------------ -----------| -2---------------- -----------| -2---------------- -3------5--| -0--0-0-0-0-0-0-0- ... -3------5--| ------------------ -1------3--| . . . . . . .
1:54 Cuentan que... ... la ciudad... -------------------- --------------------| -------------------- --------------------| -------------------- --------------------| -3------------------ ... -3------------------| -3------------------ -3------------------| -1--1-1-1-1-1-1-1--- -1--1-1-1-1-1-1-1---| . . . . . . . . . . . . . .
locura ----------------------------| ----------------------------| --2--------2--2--------2--5-| --2--------2--2--------2--5-| --0--0-0-0-0--0--0-0-0-0--3-| ----------------------------| . . . . . .
2:04 Cuentan que... ... la ciudad... -------------------- --------------------| -------------------- --------------------| -------------------- --------------------| -3------------------ ... -5------------------| -3------------------ -5------------------| -1--1-1-1-1-1-1-1--- -3--5-5-5-5-5-5-5---| . . . . . . . . . . . . . .
amargura ---------------------------| ---------------------------| --2-----------10-9-7-5-4-2-| --2-----------10-9-7-5-4-2-| --0-0-0-0-0-0--------------| ---------------------------| . . . . .
2:12 y poder ver... --------------------------------------| --------------------------------------| -------2-------5---------------5---5--| -3--5--2---3---5---5---7---3---5---5--| -3--5--0---3---3---5---7---3---3---3--| -1--3------1-------3---5---1----------|
2:27 y poder ver... --------------------------------------| --------------------------------------| -------2-------5---------------5---5--| -3--5--2---3---5---5---7---3---5---5--| -3--5--0---3---3---5---7---3---3---3--| -1--3------1-------3---5---1----------|
2:42 --------------------------------------------------------| --------------------------------------------------------| -2/0-2-5-4--2--2/0-2--7-5--4-2-2/0-2-5-4--2-7-5-4-5-4-2-| -2/0-2-5-4--2--2/0-2--7-5--4-2-2/0-2-5-4--2-7-5-4-5-4-2-| --------------------------------------------------------| --------------------------------------------------------|
2:49 -----------------------------------------| -----------------------------------------| -2/0-2-5-4--2--2/0-2--7-5--4-2-2/0-2-5-4-| -2/0-2-5-4--2--2/0-2--7-5--4-2-2/0-2-5-4-| -----------------------------------------| -----------------------------------------|
----------------------------------| ----------------------------------| -2-10-9-7-5-4-2--10-9-7-5-4-2--9~-| -2-10-9-7-5-4-2--10-9-7-5-4-2--9~-| ----------------------------------| ----------------------------------|
3:01 (aqui comienza el solo sobre esta base)
------------------ -------| ------------------ -------| -2---------------- -------| -2---------------- -3--5--| -0--0-0-0-0-0-0-0- ... -3--5--| ------------------ -1--3--| . . . . . . .
------------------ -------------| ------------------ -------------| -2---------------- -------------| -2---------------- -3--3--------| -0--0-0-0-0-0-0-0- ... -3--3--------| ------------------ -1--1--*1-*3-| . . . . . . .
------------------ -------| ------------------ -------| -2---------------- -------| -2---------------- -3--5--| -0--0-0-0-0-0-0-0- ... -3--5--| ------------------ -1--3--| . . . . . . .
------------------ -----------| ------------------ -----------| -2---------------- -----------| -2---------------- -3------5--| -0--0-0-0-0-0-0-0- ... -3------5--| ------------------ -1------3--| . . . . . . .
3:28 Cuentan que... ... la ciudad... -------------------- --------------------| -------------------- --------------------| -------------------- --------------------| -3------------------ ... -3------------------| -3------------------ -3------------------| -1--1-1-1-1-1-1-1--- -1--1-1-1-1-1-1-1---| . . . . . . . . . . . . . .
locura ----------------------------| ----------------------------| --2--------2--2--------2--5-| --2--------2--2--------2--5-| --0--0-0-0-0--0--0-0-0-0--3-| ----------------------------| . . . . . .
3:38 Cuentan que... ... la ciudad... -------------------- --------------------| -------------------- --------------------| -------------------- --------------------| -3------------------ ... -5------------------| -3------------------ -5------------------| -1--1-1-1-1-1-1-1--- -3--5-5-5-5-5-5-5---| . . . . . . . . . . . . . .
amargura ---------------------------| ---------------------------| --2-----------10-9-7-5-4-2-| --2-----------10-9-7-5-4-2-| --0-0-0-0-0-0--------------| ---------------------------| . . . . .
3:48 y poder ver... --------------------------------------| --------------------------------------| -------2-------5---------------5---5--| -3--5--2---3---5---5---7---3---5---5--| -3--5--0---3---3---5---7---3---3---3--| -1--3------1-------3---5---1----------|
4:02 y poder ver... --------------------------------------| --------------------------------------| -------2-------5---------------5---5--| -3--5--2---3---5---5---7---3---5---5--| -3--5--0---3---3---5---7---3---3---3--| -1--3------1-------3---5---1----------|
4:16 --------------------------------------------------------| --------------------------------------------------------| -2/0-2-5-4--2--2/0-2--7-5--4-2-2/0-2-5-4--2-7-5-4-5-4-2-| -2/0-2-5-4--2--2/0-2--7-5--4-2-2/0-2-5-4--2-7-5-4-5-4-2-| --------------------------------------------------------| --------------------------------------------------------|
4:23 -----------------------------------------| -----------------------------------------| -2/0-2-5-4--2--2/0-2--7-5--4-2-2/0-2-5-4-| -2/0-2-5-4--2--2/0-2--7-5--4-2-2/0-2-5-4-| -----------------------------------------| -----------------------------------------|
----------------------------------| ----------------------------------| -2-10-9-7-5-4-2--10-9-7-5-4-2--9~-| -2-10-9-7-5-4-2--10-9-7-5-4-2--9~-| ----------------------------------| ----------------------------------|
4:33 ---------------------| ---------------------| -2-10-9-7-5-4-0--2~--| -2-10-9-7-5-4-0--2~--| ---------------------| ---------------------|
Y esta es la letra: Loco y necio ingrato de nombre Nerón cobarde su tierra ni cielo sutil ignorante farsante sin alma ni honor Tormento del justo asesino y ladrón mataste a tu madre por nada vendiste tu alma maldita por una canción Cuentan que mandaste quemar la ciudad de tu locura Cuentan que mandaste arrasar la ciudad de tu amargura Y poder ver arder el horizonte danzar toda una noche por ser tu voluntad Y poder ver arder el horizonte danzar toda una noche por ser tu voluntad por ser tu voluntad Cuentan que mandaste quemar la ciudad de tu locura Cuentan que mandaste arrasar la ciudad de tu amargura Y poder ver, arder el horizonte danzar toda una noche por ser tu voluntad Y poder ver, arder el horizonte danzar toda una noche por ser tu voluntad por ser tu voluntad el credito es totalmente de zaskar_@hotmail.com
Tap to rate this tab
 
# A B C D E F G H I J K L M N O P Q R S T U V W X Y Z