Tim Reynolds – You Are My Sanity tab

 	
You Are My Sanity
By Tim Reynolds
Tabbed By Jeff Abeles

Tuning: Standard

Part A:

|--2p0------------------------------------------------||-------3--3---------3---3------------------3---------||------------------0---0---0--------------0-----------||----------------4-----------4----------4-----4-------||--------------2--------------------0-2---------------||-------------------------------0h2-------------------|
Alternate bass fill for above measure:
|--2p0------------------------------------------------||-------3--3---------3-----3-----3-----3------3-------||------------------0-----0-----0-----0-------0--------||----------------4-----0-----2-----4--------4---------||--------------2-------------------------2------------||-----------------------------------------------------|
|--2p0------------------------------------------------||-------3--2---------2---2------------------2---------||------------------0---0---0--------------0-----------||----------------4-----------4----------4-----4-------||--------------2--------------------0-2---------------||-------------------------------0h2-------------------|
|--2p0-----5------------------------------------------||:------3------------3---3------------------3--------:||------------------0---0---0--------------0-----------||----------------4-----------4----------4-----4-------||:-------------0--------------------2-0--------------:||-------------------------------0h2-------------------|
Part B:
|--2p0-----------------------0-----------------------------||:------3--0-------------0-2---2-----2-----------0--------:||----------------------0-----------0-----------0-----------||----------------0h2h4-----------4-------0h2h4-----4---2~--||:--------------------------------------------------------:||--------------3-----------3-----------3-------------3-----|
Part C:
|-----------------------0--------------------------3-------||:-----3-----3---3---2----------------3---3----2----------:||------4-----4---4---0----------4-----4---4----0-----------||----5-----5-------5---5------5-----5--------5---5---------||:-------------2------------------------2-----------------:||--0-----3------------------0-----3------------------------|
Example of fills for improv section:
|---------------------------------------------------||------3-----3---3-------------3-----3---3----------||------4-----4---4--2-4--------4-----4---4----------||----5-----5------------5----5-----5--------0-2-5---||--------------2-----------------------2------------||--0-----3-----------------0-----3------------------|
|-------------------------------------------------3p2-----||------3-----3---3--3-2-0-0------3-----3---3--0-2---------||------4-----4---4---------------4-----4---4---------4-2-4||----5-----5-------------------5-----5--------------------||--------------2-------------------------2----------------||--0-----3-------------------0-----3----------------------|
Please rate this tab:
x1.0