Tnt - Forever Shine On tab

  "Forever Shine On" by TNT

Artist : TNT
Song   : Forever Shine On
Album  : Intuition
Tuning : A half a step lower

Intro (Palm mute on the 6th string)Eb|--------------------------------------------------------|Bb|--------------------------------------------------------|Gb|--------------------------------------------------------|Db|-2----------------------2-2-2----------------------2-2--|Ab|-2------------------2---2-2-2------------------2---2-2--|Eb|-0--3-2-0-5-3-2-0-3---3-0-0-0--3-2-0-5-3-2-0-3---3-0-0--|
|------------------------------------------------||------------------------------------------------||------------------------------------------------||------------------------------------------------||-5-7----7-7-----5-5-----4-4-----3---3-2-----4~--||-----00------00------00------00---------3-0-----|
|----------------------------------------------------------||----------------------------------------------------------||----------------------------------------------------------||-2----------------------2-2-2-----------------------------||-2------------------2---2-2-2-------------------2---4---5-||-0--3-2-0-5-3-2-0-3---3-0-0-0--3-2-0-5-3-2-00-3---3---3---|
|-------------------------------------------------------------||----------------------------------------------------<--------||----------------------------------------------------7---7-7--||----------------------------------------------------7---7-7--||-5-7----7-7-----5-5-----4-4-----3---3-2-----4--5\---5---5-5--||-----00------00------00------00---------3-0------------------|
Verse (Palm mute on the 6th stirng)|-----------------------------------------------||-----------------------------------------------||-----------------------------------------------||-----------------------------------------------||-5-7----7-7-----7-7-----7-7-----7-----7-----7--||-----00------00------00------00----00----00----|
|---------------------------------------------||---------------------------------------------||---------------------------------------------||---------------------------------------------||-5-7----7-7-----7-7-----7-7-----7--7-5-------||-----00------00------00------00--------7-3~--|
|
| Higher part|---------------------------------------------||---------------------------------------------||---------------------------------------------||-----------------------------------5-4-------||---------------------------------------5-2~--||---------------------------------------------|
|-----------------------------------------------||-----------------------------------------------||-----------------------------------------------||-----------------------------------------------||-5-7----7-7-----7-7-----7-7-----7-----7-----7--||-----00------00------00------00----00----00----|
|----------------------------------------||----------------------------------------||----------------------------------------||----------------------------------------||-5-7----7-7-----5-5-----4-4--4-3----0---||-----00------00------00-----------------|
|
|----------------------------------------||----------------------------------------||----------------------------------------||--------5-5--xx-4-4--xx-3-3--3-2--------||----------------------------------------||----------------------------------------|
Chorus|-----------------------------------------------------------------||---------------------------------------xx8\----3-----------------||---------7-----2--2---------5--5-------xx7\----2-----2-----5-----||-5-5\----7-----2--2---------5--5-------xx5\----0-----2-----5-----||-5-5\----5-----0--0-x-x-x-x-3--3-x-x-x---------------0-----3-----||-3-3\------------------------------------------------------------|
|-----------------------------------------------------------------------||-8-8-8\--------------5-------------------------------------------------||-7-7-7\----2----4----4----2----------2-----5----------5-----5-5---4-4--||-5-5-5\----2----4----2----2----------2-----5----------5-----5-5---4-4--||-----------0----2---------0--0-0-0-0-0-----3--3-3-3-3-3-----3-3---2-2--||-----------------------------|>PM <|----------|>PM <|------------------|
Interlude|--------------------------------------------------------||--------------------------------------------------------||--------------------------------------------------------||-2----------------------2-2-2----------------------2-2--||-2------------------2---2-2-2------------------2---2-2--||-0--3-2-0-5-3-2-0-3---3-0-0-0--3-2-0-5-3-2-0-3---3-0-0--|
|------------------------------------------------------------||------------------------------------------------------------||------------------------------------------------------------||-2----------------------2-2-2-------------------------------||-2------------------2---2-2-2-------------------2---4--4--4-||-0--3-2-0-5-3-2-0-3---3-0-0-0--3-2-0-5-3-2-00-3---3---------|
Repeat Verse
2nd Chorus|-----------------------------------------------------------------||---------------------------------------xx8\----3-----------------||---------7-----2--2---------5--5-------xx7\----2-----2-----5-----||-5-5\----7-----2--2---------5--5-------xx5\----0-----2-----5-----||-5-5\----5-----0--0-x-x-x-x-3--3-x-x-x---------------0-----3-----||-3-3\------------------------------------------------------------|
|-------------------------------------------||-8-8-8\--------------5---------------------||-7-7-7\----2----4----4----2----------2-----||-5-5-5\----2----4----2----2----------2-----||-----------0----2---------0--0-0-0-0-0-----||-----------------------------|>PM <|-------|
|-----------------------------------------------------------------||-8--8----------------------------------xx8\----3-----------------||-7--7----7-----2--2---------5--5-------xx7\----2-----2-----5-----||-5--5----7-----2--2---------5--5-------xx5\----0-----2-----5-----||---------5-----0--0-x-x-x-x-3--3-x-x-x---------------0-----3-----||-----------------------------------------------------------------|
|------------------------------------------------------||-8--------------5-------------------------------------||-7----2----4----4----2---------2-----5----------5-----||-5----2----4----2----2---------2-----5----------5-----||------0----2---------0--0-0-0--0-----3--3-3-3-3-3-----||-----------------------PMPMPM-----------|>PM <|-------|
Fretless Bass Solo|-------------13----------.----------------------------------------------||-13-14-13-11------13-14-11--11-13------------------------------------13-||----------------------------------11--10-----------------------10-13----||-------------------------------------------11-10-11---11-10-11----------|
|-------------13----------.-------------------------------------------13---||-13-14-13-11------13-14-11--11-13------------------------------10-13------||----------------------------------12------11-9-11-----11-10-11------------||--------------------------------------------------------------------------|
|
| Guitar|--------------------------------------------------------------------------||--------------------------------------------------------------------------||---------------------------------------------------------------------11\--||---------------------------------------------------------------10-13------||------------------------------------------------------11-10-11------------||--------------------------------------------------------------------------|
|-------------13----------.----------------------------------------------||-13-14-13-11------13-14-11--11-13------------------------------------13-||----------------------------------11--10-----------------------10-13----||-------------------------------------------11-10-11---11-10-11----------|
|-------------13----------.-----------||-13-14-13-11------13-14-11--11-13----||----------------------------------12-||-------------------------------------|
|-> Palm mute on the 5th and 6th strings|----------------------------------------------------------------------||----------------------------------------------------------------------||----------------------------------------------------------------------||---------------1----------2--2-------2--2---------------2--2-----PH---||-2-1-2---2-1-2------4-2--------4-2--------4-2-4-2-4-2--------4-2-4~---||------------------------4----------4------------------4---------------|
|--------------------------------------------------||--------------------------------------------------||--------------------------------------------------||-------2--2-------2--2-------2--2-------2-----PH--||-4-2--------4-2--------4-2--------4-2-4---4-2-4~--||-----4----------4----------4----------------------|
|--------------------------------------------------||--------------------------------------------------||--------------------------------------------------||-------2--2-------2--2-------2--2-------2---------||-4-2--------4-2--------4-2--------4-2-----4-2-4---||-----4----------4----------4----------4-----------|
|
| Higher part (Palm mute on the 4th and 5th strings)|--------------------------------------------------||-------1--1-------1--1-------1--1-------1---------||-2-1--------2-1--------2-1--------2-1-----2-1-2---||-----2----------2----------2----------2-----------||--------------------------------------------------|
Tempo changes
|--------------------------------------------------||--------------------------------------------------||--------------------------------------------------||-------2--2-------2--2---------------2--2---------||-4-2--------4-2--------4-2-4-2-4-2--------4-2-4---||-----4----------4------------------4--------------|
|
|--------------------------------------------------||-------1--1-------1--1---------------1--1---------||-2-1--------2-1--------2-1-2-1-2-1--------2-1-2---||-----2----------2------------------2--------------||--------------------------------------------------|
|
| Another guitar part (PM on the 4th and 5th strings)|--------------------------------------------------||--------------------------------------------------||-------4--4-------3--3---------------4--4---------||------------6-4--------6-4-6-4-6-4--------6-4-6---||----------------6------------------6--------------||--------------------------------------------------|
Guitar Solo|------------------------------------------------------------------------------||-14bh/---12h14----------------------------------------------------------------||---------------12--12bh/----------------14b1/~--------------------------------||--------------------------14-12-14-14~---------------------------------Arm----||-----------------------------PM-PM---------------x\---/10~\--/10bh/~--\-------|Down|-------------------------------------------------------------------------0\---|
|------------------------------------------------------------||------------------------------------------------------------||-11bh/-\-/-\-/-\---11------11~-------11~----11~-------------||-11bh/-\-/-\-/-\-----11----PH--------PH---x-PH--------------||-----------------------9~-----------------------------------||---------------------------------0-0------------------------|
|-> Maching Gun Technique |-> Wah pedal|----------------(x8)-------------------------------Arm---------19~--||-----------0h5h7p5p0-------------------------------Down-------x-----||-0h5h7p5p0--------------------------------------<5>\---------x------||-----------------------?????-----PH---<7>-<7>-----------------------||---------------------------------5~---------------------------------||--------------------------------------------------------------------|
|----------------------------------12-----------------------12-17-----------||--------12-12-12---------12-12-12----15-12--------12-12-15--------12h15p12-||-14b1/------------14b1/--------------------14b1/---------------------------||---------------------------------------------------------------------------||---------------------------------------------------------------------------||---------------------------------------------------------------------------|
|-----------------------------------------------------12-15-12---------||--------12-12-15-12-11-11-11-12-11-11-11-11-12-11-15----------15b1/~--||-14b1/--------------------------------------------|-> x4 <-|---------||----------------------------------------------------------------------||----------------------------------------------------------------------||----------------------------------------------------------------------|
Last Pre-Chorus|----------------------------------------||----------------------------------------||----------------------------------------||----------------------------------------||-5-7-xx-7-7--xx-5-5--xx-4-4--4-3----0---||-----00------00------00-----------------|
|
|----------------------------------------||----------------------------------------||----------------------------------------||--------5-5--xx-4-4--xx-3-3--3-2--------||----------------------------------------||----------------------------------------|
|-----------------------------------------------------------------||---------------------------------------xx8\----3-----------------||---------7-----2--2---------5--5-------xx7\----2-----2-----5-----||-5-5\----7-----2--2---------5--5-------xx5\----0-----2-----5-----||-5-5\----5-----0--0-x-x-x-x-3--3-x-x-x---------------0-----3-----||-3-3\------------------------------------------------------------|
|-----------------------------------------------------------||-8-8-8\--------------5-------------------------------------||-7-7-7\----2----4----4----2---------2-----5----------5-----||-5-5-5\----2----4----2----2---------2-----5----------5-----||-----------0----2---------0--0-0-0--0-----3--x-x-x-x-3-----||----------------------------PMPMPM-------------------------|
|-------------------------------------------------------------------||-8-8-8\----------------------------------xx8\----3-----------------||-7-7-7\----7-----2--2---------5--5-------xx7\----2-----2-----5-----||-5-5-5\----7-----2--2---------5--5-------xx5\----0-----2-----5-----||-----------5-----0--0-x-x-x-x-3--3-x-x-x---------------0-----3-----||-------------------------------------------------------------------|
|-----------------------------------------------------------||-----------------------------------------------------------||----------------2---------2-----5----------5---------------||----------------2---------2-----5----------5-----5-5--4-4--||-2----0---------0--0-0-0--0-----3--3-3-3-3-3-----3-3--2-2--||-----------0------PMPMPM-----------|>PM <|-----------------|
|--------------------------------------------------------||--------------------------------------------------------||--------------------------------------------------------||-2----------------------2-2-2----------------------2-2--||-2------------------2---2-2-2------------------2---2-2--||-0--3-2-0-5-3-2-0-3---3-0-0-0--3-2-0-5-3-2-0-3---3-0-0--|
|---------------------------------------------------------------------||---------------------------------------------------------------------||---------------------------------------------------------------------||-2----------------------2-2-2----------------------------------------||-2------------------2---2-2-2----------------2-0-----3-2-0---5-3-2-0-||-0--3-2-0-5-3-2-0-3---3-0-0-0--3-2-0-5-3-2-0-----3-2-------3---------|
|-----------------------------------||-----------------------------------||-----------------7--/9-----9--9\---||---------Arm-----7--/9-----9--9\---||---------down----5--/7-----7--7\---||-3-5-2-3-0\------------0-0---------|
* Legend * / = Slide up \ = Slide down h = Hammer-on p = Pull-off ~ = Vibrato PM = Palm Mute PH = Picking harmonic (Artificial harmonic) <> = Natural harmonic b?/ = Bend : ? represents how many steps to bend bh/ = Bend a 'half' step b1/ = Bend a whole step b1.5/ = Bend whole and a half steps b?\ = Release : ? represents how many steps to release. If no number is present, release it to the original pitch. This notation could be just '\' as in bh/ \ / for bending, releasing to the original pitch, then bending again \\ // TNT : Tony Harnell (Lead & Harmony vocals) \\ // Ronni Le Tekro (Guitars, vocals) \\v// Morty Black (Bass guitar)
Tap to rate this tab
 
# A B C D E F G H I J K L M N O P Q R S T U V W X Y Z