Tnt - 10000 Lovers In One tab

   "10,000 Lovers (In One)" by TNT

Song   : 10,000 Lovers (In One)
Album  : Tell No Tales
Tuning : A half step lower (all strings)



Intro (Palm mute on 5th and 6th strings except for the first note)Eb|-----------------------|-----------------------------|Bb|-----------------------|-----------------------------|Gb|-----6------7-7--------|-6------6-7------------------|Db|-----7------7-7--------|-7------7-7------------------|Ab|-----------------------|-------------------5---------|Eb|-0------0-0------0--0-0|----0-0--------5-7---7-6-5-3-|
|-----------------------|------------------------||-----------------------|------------------------||-----6------7-7------2-|------------------------||-----7------7-7------2-|------------------------||-----------------7\--0-|------------------------||-0------0-0------------|-----------3-2---5-3----|
|-----------------------|-----------------------------||-----------------------|-----------------------------||-----6------7-7--------|-6------6-7------------------||-----7------7-7--------|-7------7-7------------------||-----------------------|-------------------5---------||-0------0-0------0--0-0|----0-0--------5-7---7-6-5-3-|
|-----------------------|------------------------||-----------------------|------------------------||-----6------7-7------2-|------------------------||-----7------7-7------2-|------------------------||-----------------7\--0-|------------------------||-0------0-0------------|--------0-0-3-2-0-5-3-3-|
|-----------------------|-----------------------------||-----------------------|-----------------------------||-----6------7-7--------|-6------6-7------------------||-----7------7-7--------|-7------7-7------------------||-----------------------|-------------------5---------||-0------0-0------0--0-0|----0-0--------5-7---7-6-5-3-|
|-----------------------|----------------||-----------------------|----------------||-----6------7-7------2-|----------------||-----7------7-7------2-|----------------||-----------------7\--0-|----------------||-0------0-0------------|--3-2-0---------|
Verse (Acoustic guitar - arpeggio)|---0-----0-----0--------------|---0-----0-----------------------------||-----0-----0-----0---4--------|-----0-----0---5--4-4--(5---2nd verse)-||-------2-----2-----2----4---4-|-------2-------4--4-4--(ph)------------||--------------------------4---|---------------------------------------||------------------------------|---------------------------------------||------------------------------|---------------------------------------|
|---0-----0-----0--------------|------4-0----4-0-------5-0-------5-0-----||-----0-----0-----0---4--------|-----------------3---------3---------3---||-------2-----2-----2----4-----|-----------------------------------------||--------------------------4---|-----------------------------------------||------------------------------|-----------------------------------------||------------------------------|-----------------------------------------|
| ||------------------------------|(Electric with palm mute on both strings)||------------------------------|-----------------------------------------||------------------------------|-----------------------------------------||------------------------------|-6-66-6-66-6-66-6-66-7-77-7-77-7777-7777-||------------------------------|-4-44-4-44-4-44-4-44-5-55-5-55-5555-5555-||------------------------------|-----------------------------------------|
Chorus|-----------------------|------------------------||-----------------------|------------------------||------------9--9----xx-|-7--7-----xx-9--9----xx-||-7--7----xx-9--9----xx-|-7--7-----xx-9--9----xx-||-7--7----xx-7--7----xx-|-5--5-----xx-7--7----xx-||-5--5----xx------------|------------------------|
|-----------------------|--------------------------||-----------------------|--------------------------||------------9--9----xx-|--------------------------||-7-------xx-9--9----xx-|-4--4-----xx--------------||-7-------xx-7--7----xx-|-4--4-----xx--------------||-5-------xx------------|-2--2-----xx-2-4-5-4-5-4--|
|-----------------------|------------------------||-----------------------|------------------------||------------9--9----xx-|-7--7-----xx-9--9----xx-||-7--7----xx-9--9----xx-|-7--7-----xx-9--9----xx-||-7--7----xx-7--7----xx-|-5--5-----xx-7--7----xx-||-5--5----xx------------|------------------------|
|-----------------------|--------------------------||-----------------------|--------------------------||------------9--9-------|-7------<5>~--------------||-7-------xx-9--9-------|-7----------with arm------||-7-------xx-7--7-------|-5------------------------||-5-------xx------------|----------------------/\--| g
|-----------------------|-----------------------------||-----------------------|-----------------------------||-----6------7-7--------|-6------6-7------------------||-----7------7-7--------|-7------7-7------------------||-----------------------|-------------------5---------||-0------0-0------0--0-0|----0-0--------5-7---7-6-5-3-|
|-----------------------|------------------------||-----------------------|------------------------||-----6------7-7------2-|------------------------||-----7------7-7------2-|------------------------||-----------------7\--0-|--------------------2-0-||-0------0-0------------|-3-2-0----0-3-2-5-3-----|
Repeat verse
2nd Chorus|-----------------------|------------------------||-----------------------|------------------------||------------9--9----xx-|-7--7-----xx-9--9----xx-||-7--7----xx-9--9----xx-|-7--7-----xx-9--9----xx-||-7--7----xx-7--7----xx-|-5--5-----xx-7--7----xx-||-5--5----xx------------|------------------------|
|-----------------------|--------------------------||-----------------------|--------------------------||------------9--9----xx-|--------------------------||-7-------xx-9--9----xx-|-4--4-----xx--------------||-7-------xx-7--7----xx-|-4--4-----xx-----------PH-||-5-------xx------------|-2--2-----xx-2-4-5-4-5-4~-|
|-----------------------|------------------------||-----------------------|------------------------||------------9--9----xx-|-7--7-----xx-9--9----xx-||-7--7----xx-9--9----xx-|-7--7-----xx-9--9----xx-||-7--7----xx-7--7----xx-|-5--5-----xx-7--7----xx-||-5--5----xx------------|------------------------|
|-----------------------|--------------------------||-----------------------|--------------------------||------------9--9----xx-|--------------------------||-7-------xx-9--9----xx-|-4--------xx-4--6---------||-7-------xx-7--7----xx-|-4--------xx-4--6---------||-5-------xx------------|-2--------xx-2--4---------|
|-----------------------|------------------------||-----------------------|------------------------||------------9--9----xx-|-7--7-----xx-9--9----xx-||-7--7----xx-9--9----xx-|-7--7-----xx-9--9----xx-||-7--7----xx-7--7----xx-|-5--5-----xx-7--7----xx-||-5--5----xx------------|------------------------|
|-----------------------|------------------------||-----------------------|------------------------||------------9--9----xx-|-7----------------------||-7--7----xx-9--9----xx-|-7----------------------||-7--7----xx-7--7----xx-|-5----------------------||-5--5----xx------------|------------------------|
With volume pedalGuitar solo < < < <|-24-----20------|-19-----17--------|------------------|-------------------||----------------|-20-----17--------|------------------|-------------------||----------------|------------------|-12---11----------|-9------12---------||----------------|------------------|-12---12----------|-9------12---------||----------------|------------------|------------------|-------------------||----------------|------------------|------------------|-------------------|
|------------------------------------|-------------------------------------||15b1/\-12h15p12---------------------|-------------------------------------||-----------------14b1/- \--12h14p12-|-------------------------------------||------------------------------------|-12h14p12----------------------------||------------------------------------|----------12-12-14-12-10-10-12-10-7~-||------------------------------------|-------------------------------------| |-> Palm mute <-|
|--------------------------------17----19-17--------||-9h12p9-12b1/-12u----15b1/---17----17-------17-----||-----------------------------------------------14~-||---------------------------------------------------||---------------------------------------------------||---------------------------------------------------|
Tremolo picking (higher part)|-15-15-14-14-17-17-15-15-19--| |-17-17-16-16-19-19-17-17-21--||-----------------------------| |-----------------------------||-----------------------------| |-----------------------------||-----------------------------| |-----------------------------||-----------------------------| |-----------------------------||-----------------------------| |-----------------------------|
Repeat chorus * Legend * / = Slide up \ = Slide down h = Hammer-on p = Pull-off ~ = Vibrato PM = Palm Mute x = Muted tone <> = Natural harmonic PH = Picking harmonic (Artificial harmonic) b?/ = Bend : ? represents how many steps to bend bh/ = Bend a 'half' step b1/ = Bend a whole step b1.5/ = Bend whole and a half steps b?\ = Release : ? represents how many steps to release. If no number is present, release it to the original pitch. This notation could be just '\' as in bh/ \ / for bending, releasing to the original pitch, then bending again u = Hold : After bending the previous note, keep the pitch, then pick the same string again 10bh/ 10u = Bend the 10th fret note for a 'h'alf step THEN pick the same string again while keep the half step higher pitch \\ // TNT : Tony Harnell (Lead & Harmony vocals) \\ // Ronni Le Tekro (Guitars, vocals) \\v// Morty Black (Bass guitar)
Tap to rate this tab
 
# A B C D E F G H I J K L M N O P Q R S T U V W X Y Z