All In All tab with lyrics by Toad The Wet Sprocket - Easy chords and tabs for guitar

Toad The Wet Sprocket – All In All tab

All In All                                      by Toad The Wet Sprocket

Transcribed By: Walter Tien (walter@nb.net)

Capo 3rd fret

|---6-----8-----6-----4--3-4-----|---6-----8-----6-----4--3-4-----||-6---6-----6----------------6---|-6---6-----6----------------6---||-3-----3-----3-----5----------3-|-3-----3-----3-----5----------3-||-3---------------3--------------|-3---------------3--------------||-5------------------------------|-5------------------------------||-6------------------------------|-6------------------------------|
|---6-----8-----6-----4--3-4-----|-6-6-----6-----6----------6-6-6-||-6---6-----6----------------6---|-6---6---6-----6----------6-6-6-||-3-----3-----3-----5----------3-|-3-----3-3-----3----------3-3-3-||-3---------------3--------------|-3-------3-----3----------3-3-3-||-5------------------------------|-5-------5-----5----------5-5-5-||-6------------------------------|-6-------6---6-6----------6-6-6-|
|---6-----8-----6-----4--3-4-----|---6-----8-----6-----4--3-4-----||-6---6-----6----------------6---|-6---6-----6----------------6---||-3-----3-----3-----5----------3-|-3-----3-----3-----5----------3-||-3---------------3--------------|-3---------------3--------------||-5------------------------------|-5------------------------------||-6------------------------------|-6------------------------------|
all in all it's just as well water moves, earth is still
|---6-----8-----6-----4--3-4-----|-6-6-----6-----6----------6-6-6-||-6---6-----6----------------6---|-6---6---6-----6----------6-6-6-||-3-----3-----3-----5----------3-|-3-----3-3-----3----------3-3-3-||-3---------------3--------------|-3-------3-----3----------3-3-3-||-5------------------------------|-5-------5-----5----------5-5-5-||-6------------------------------|-6-------6---6-6----------6-6-6-|
time is slower still
|---6-----8-----6-----4--3-4-----|---6-----8-----6-----4--3-4-----||-6---6-----6----------------6---|-6---6-----6----------------6---||-3-----3-----3-----5----------3-|-3-----3-----3-----5----------3-||-3---------------3--------------|-3---------------3--------------||-5------------------------------|-5------------------------------||-6------------------------------|-6------------------------------|
half an hour later is thirty days nothing moves at all this way
|---6-----8-----6-----4--3-4-----|-6-6-----6-----6----------------||-6---6-----6----------------6---|-6---6---6-----6----------3-5---||-3-----3-----3-----5----------3-|-3-----3-3-----3----------3-5---||-3---------------3--------------|-3-------3-----3----------3-5---||-5------------------------------|-5-------5-----5----------------||-6------------------------------|-6-------6---6-6----------------|
hold on, I can wait
|-3--3--5-6-5------|----------------6-------------||-3--3--6------6---|-------4----------6-----------||-3--3--5--------5-|-----3----3--3------3---3-----||-5--5--3----------|---5---------3------------3---||-5--5-------------|-6-----------5--------5-----5-||-3--3-------------|-------------6----------------|
life lives burning i am only just as much as i
|-3--3--5---5-5-|-------------------------||-3--3--6---6-6-|-4----4----3-------------||-3--3--5---5-5-|-3------3----3--3H5-3----||-5--5--3---3-3-|-5--5-----------------5--||-5--5----------|-6-----------------------||-3--3----------|-------------------------|
can make myself
|-3--3--5-6-5------|----------------6-------------||-3--3--6------6---|-------4----------6-----------||-3--3--5--------5-|-----3----3--3------3---3-----||-5--5--3----------|---5---------3------------3---||-5--5-------------|-6-----------5--------5-----5-||-3--3-------------|-------------6----------------|
and i lie burning life is only just a part of it
|-3--3--5---5-5-|-------------------------||-3--3--6---6-6-|-4-4-----4------6-----6--||-3--3--5---5-5-|-3---3--------3---3------||-5--5--3---3-3-|-5-----5----5-------5----||-5--5----------|-6-----------------------||-3--3----------|-------------------------|
I can't help myself
|---6-----8-----6-----4--3-4-----|---6-----8-----6-----4--3-4-----||-6---6-----6----------------6---|-6---6-----6----------------6---||-3-----3-----3-----5----------3-|-3-----3-----3-----5----------3-||-3---------------3--------------|-3---------------3--------------||-5------------------------------|-5------------------------------||-6------------------------------|-6------------------------------|
all in all it's just the sun catch the wind, hold it down
|---6-----8-----6-----4--3-4-----|---6-----6-----6--6-----6-----||-6---6-----6----------------6---|-6---6-----6---6----6-----6---||-3-----3-----3-----5----------3-|-3-----3-----3--------3-----3-||-3---------------3--------------|-3----------------------------||-5------------------------------|-5----------------------------||-6------------------------------|-6----------------------------|
cold when evening comes (and evening comes)
|---6-----8-----6-----4--3-4-----|---6-----8-----6-----4--3-4-----||-6---6-----6----------------6---|-6---6-----6----------------6---||-3-----3-----3-----5----------3-|-3-----3-----3-----5----------3-||-3---------------3--------------|-3---------------3--------------||-5------------------------------|-5------------------------------||-6------------------------------|-6------------------------------|
all in all it's just as well catch the river, make it still
|---6-----8-----6-----4--3-4-----|-6-6-----6-----6----------------||-6---6-----6----------------6---|-6---6---6-----6----------3-5---||-3-----3-----3-----5----------3-|-3-----3-3-----3----------3-5---||-3---------------3--------------|-3-------3-----3----------3-5---||-5------------------------------|-5-------5-----5----------------||-6------------------------------|-6-------6---6-6----------------|
water turns the mill
|-3--3--5-6-5------|----------------6-------------||-3--3--6------6---|-------4----------6-----------||-3--3--5--------5-|-----3----3--3------3---3-----||-5--5--3----------|---5---------3------------3---||-5--5-------------|-6-----------5--------5-----5-||-3--3-------------|-------------6----------------|
life lives burning i am only just as much as i
|-3--3--5---5-5-|-------------------------||-3--3--6---6-6-|-4----4----3-------------||-3--3--5---5-5-|-3------3----3--3H5-3----||-5--5--3---3-3-|-5--5-----------------5--||-5--5----------|-6-----------------------||-3--3----------|-------------------------|
can help myself
|-3--3--5-6-5------|----------------6-------------||-3--3--6------6---|-------4----------6-----------||-3--3--5--------5-|-----3----3--3------3---3-----||-5--5--3----------|---5---------3------------3---||-5--5-------------|-6-----------5--------5-----5-||-3--3-------------|-------------6----------------|
and i lie burning life is only just a part of it
|-3--3--5---5-5-|-------------------------||-3--3--6---6-6-|-4-4-----4------6-----6--||-3--3--5---5-5-|-3---3--------3---3------||-5--5--3---3-3-|-5-----5----5-------5----||-5--5----------|-6-----------------------||-3--3----------|-------------------------|
I can't help myself
|---6-----8-----6-----4--3-4-----|---6-----8-----6-----4--3-4-----||-6---6-----6----------------6---|-6---6-----6----------------6---||-3-----3-----3-----5----------3-|-3-----3-----3-----5----------3-||-3---------------3--------------|-3---------------3--------------||-5------------------------------|-5------------------------------||-6------------------------------|-6------------------------------|
all in all it's just as well water moves and earth is still
|---6-----8-----6-----4--3-4-----|---6-----6-----6--6-----6-----||-6---6-----6----------------6---|-6---6-----6---6----6-----6---||-3-----3-----3-----5----------3-|-3-----3-----3--------3-----3-||-3---------------3--------------|-3----------------------------||-5------------------------------|-5----------------------------||-6------------------------------|-6----------------------------|
time is slower still (thirty days)
|---6-----8-----6-----4--3-4-----|---6-----8-----6-----4--3-4-----||-6---6-----6----------------6---|-6---6-----6----------------6---||-3-----3-----3-----5----------3-|-3-----3-----3-----5----------3-||-3---------------3--------------|-3---------------3--------------||-5------------------------------|-5------------------------------||-6------------------------------|-6------------------------------|
half an hour later is thirty days nothing moves at all this way
|---6-----8-----6-----4--3-4-----|-6-6-----6-----6----------6-6-6-||-6---6-----6----------------6---|-6---6---6-----6----------6-6-6-||-3-----3-----3-----5----------3-|-3-----3-3-----3----------3-3-3-||-3---------------3--------------|-3-------3-----3----------3-3-3-||-5------------------------------|-5-------5-----5----------5-5-5-||-6------------------------------|-6-------6---6-6----------6-6-6-|
hold on, I can wait but i can't wait
|---6-----8-----6-----4--3-4-----|---6-----8-----6-----4--3-4-----||-6---6-----6----------------6---|-6---6-----6----------------6---||-3-----3-----3-----5----------3-|-3-----3-----3-----5----------3-||-3---------------3--------------|-3---------------3--------------||-5------------------------------|-5------------------------------||-6------------------------------|-6------------------------------|
hey now hey, hey now
|---6-----8-----6-----4--3-4-----|-6-6-----6-----6----------6-6-6-||-6---6-----6----------------6---|-6---6---6-----6----------6-6-6-||-3-----3-----3-----5----------3-|-3-----3-3-----3----------3-3-3-||-3---------------3--------------|-3-------3-----3----------3-3-3-||-5------------------------------|-5-------5-----5----------5-5-5-||-6------------------------------|-6-------6---6-6----------6-6-6-|
but i can't wait i can't help myself
|---6-----8-----6-----4--3-4-----|---6-----8-----6-----4--3-4-----||-6---6-----6----------------6---|-6---6-----6----------------6---||-3-----3-----3-----5----------3-|-3-----3-----3-----5----------3-||-3---------------3--------------|-3---------------3--------------||-5------------------------------|-5------------------------------||-6------------------------------|-6------------------------------|
(self)
|---6-----8-----6-----4--3-4-----|-6-6-----6-----6----------6-6-6-||-6---6-----6----------------6---|-6---6---6-----6----------6-6-6-||-3-----3-----3-----5----------3-|-3-----3-3-----3----------3-3-3-||-3---------------3--------------|-3-------3-----3----------3-3-3-||-5------------------------------|-5-------5-----5----------5-5-5-||-6------------------------------|-6-------6---6-6----------6-6-6-|
i can't wait
|---6-----8-----6-----4--3-4-----|---6-----8-----6-----4--3-4-----||-6---6-----6----------------6---|-6---6-----6----------------6---||-3-----3-----3-----5----------3-|-3-----3-----3-----5----------3-||-3---------------3--------------|-3---------------3--------------||-5------------------------------|-5------------------------------||-6------------------------------|-6------------------------------|
hey now hey, hey now
|---6-----8-----6-----4--3-4-----|-6-----------------------||-6---6-----6----------------6---|-6-----------------------||-3-----3-----3-----5----------3-|-3-----------------------||-3---------------3--------------|-3-----------------------||-5------------------------------|-5-----------------------||-6------------------------------|-6-----------------------|
i can't wait hey now
|---6-----8-----6-----4--3-4-----|---6-----8-----6-----4--3-4-----||-6---6-----6----------------6---|-6---6-----6----------------6---||-3-----3-----3-----5----------3-|-3-----3-----3-----5----------3-||-3---------------3--------------|-3---------------3--------------||-5------------------------------|-5------------------------------||-6------------------------------|-6------------------------------|
|---6-----8-----6-----4--3-4-----|---6-----6-----6--6-----6-----||-6---6-----6----------------6---|-6---6-----6---6----6-----6---||-3-----3-----3-----5----------3-|-3-----3-----3--------3-----3-||-3---------------3--------------|-3----------------------------||-5------------------------------|-5----------------------------||-6------------------------------|-6----------------------------|
|---6-----8-----6-----4--3-4-----|---6-----8-----6-----4--3-4-----||-6---6-----6----------------6---|-6---6-----6----------------6---||-3-----3-----3-----5----------3-|-3-----3-----3-----5----------3-||-3---------------3--------------|-3---------------3--------------||-5------------------------------|-5------------------------------||-6------------------------------|-6------------------------------|
|---6-----8-----6-----4--3-4-----|---6-----6--8-8-6-6-||-6---6-----6----------------6---|-6---6---6--6-6-6-6-||-3-----3-----3-----5----------3-|-3-----3-3--3-3-3-3-||-3---------------3--------------|-3-------3--3-3-3-3-||-5------------------------------|-5-------5--5-5-5-5-||-6------------------------------|-6-------6--6-6-6-6-|
Please rate this tab:
x1.0