Tokio Hotel - Phantomrider tab version 2

Phantomrider / Geisterfahrer .
Acoustic .

Verse

------------------------------------------|--1--1--1--1--1--1------------------------|------------------------------------------| x3--2--2--2--2--2--2----3--3--3--3--3--3----|--3--3--3--3--3--3----1--1--1--1--1--1----|------------------------------------------|(Palm Mute)
------------------------------------------|--1--1--1--1--1--1------------------------|------------------------------------------| x1--2--2--2--2--2--2----2--2--2--2--2--2----|--3--3--3--3--3--3----2--2--2--2--2--2----|------------------------------------------|(Palm Mute)
------------------------------------------|--1--1--1--1--1--1------------------------|------------------------------------------| x3--2--2--2--2--2--2----3--3--3--3--3--3----|--3--3--3--3--3--3----1--1--1--1--1--1----|------------------------------------------|(Palm Mute)
------------------------------------------|--1--1--1--1--1--1------------------------|------------------------------------------| x1--2--2--2--2--2--2----2--2--2--2--2--2----|--3--3--3--3--3--3----2--2--2--2--2--2----|------------------------------------------|(Palm Mute)
----------------------------|--1--1--1--1--1--1----------|----------------------------| x1--2--2--2--2--2--2----3~----|--3--3--3--3--3--3----1~----|----------------------------|(Palm Mute)
Chorus
------------------------------------------|--1--1--1--1--1--1------------------------|------------------------------------------| x1--2--2--2--2--2--2----5--5--5--5--5--5----|--3--3--3--3--3--3----5--5--5--5--5--5----|----------------------3--3--3--3--3--3----|
------------------------------------------|------------------------------------------|--3--3--3--3--3--3------------------------| x1--3--3--3--3--3--3----3--3--3--3--3--3----|--1--1--1--1--1--1----3--3--3--3--3--3----|----------------------1--1--1--1--1--1----|
------------------------------------------|--1--1--1--1--1--1------------------------|------------------------------------------| x1--2--2--2--2--2--2----5--5--5--5--5--5----|--3--3--3--3--3--3----5--5--5--5--5--5----|----------------------3--3--3--3--3--3----|
------------------------------------------|------------------------------------------|--3--3--3--3--3--3----7--7--7--7--7--7----| x1--3--3--3--3--3--3----7--7--7--7--7--7----|--1--1--1--1--1--1----5--5--5--5--5--5----|------------------------------------------|
Verse
------------------------------------------|--1--1--1--1--1--1------------------------|------------------------------------------| x3--2--2--2--2--2--2----3--3--3--3--3--3----|--3--3--3--3--3--3----1--1--1--1--1--1----|------------------------------------------|(Palm Mute)
------------------------------------------|--1--1--1--1--1--1------------------------|------------------------------------------| x1--2--2--2--2--2--2----2--2--2--2--2--2----|--3--3--3--3--3--3----2--2--2--2--2--2----|------------------------------------------|(Palm Mute)
----------------------------|--1--1--1--1--1--1----------|----------------------------| x1--2--2--2--2--2--2----3~----|--3--3--3--3--3--3----1~----|----------------------------|(Palm Mute)
Chorus
------------------------------------------|--1--1--1--1--1--1------------------------|------------------------------------------| x1--2--2--2--2--2--2----5--5--5--5--5--5----|--3--3--3--3--3--3----5--5--5--5--5--5----|----------------------3--3--3--3--3--3----|
------------------------------------------|------------------------------------------|--3--3--3--3--3--3------------------------| x1--3--3--3--3--3--3----3--3--3--3--3--3----|--1--1--1--1--1--1----3--3--3--3--3--3----|----------------------1--1--1--1--1--1----|
------------------------------------------|--1--1--1--1--1--1------------------------|------------------------------------------| x1--2--2--2--2--2--2----5--5--5--5--5--5----|--3--3--3--3--3--3----5--5--5--5--5--5----|----------------------3--3--3--3--3--3----|
-----------------------|-----------------------|--3--3--3--3--3--3~----| x1--3--3--3--3--3--3~----|--1--1--1--1--1--1~----|-----------------------|
Bridge
--1--0--3--1--0--1------------------------|--2--2--2--2--2--2------------------------|--2--2--2--2--2--2------------------------| x3----------------------3--3--3--3--3--3----|----------------------1--1--1--1--1--1----|------------------------------------------|
------------------------------------------|------------------------------------------| x1------------------------------------------|--3--3--3--3--3--3----5--5--5--5--5--5----|--1--1--1--1--1--1----3--3--3--3--3--3----|------------------------------------------|
------------------- ----------------------------|--1--1--1---------- --1--1--1--1--1--1----------|------------------- x2 ----------------------------| x1--2--2--2----3~---- --2--2--2--2--2--2----3~----|--3--3--3----1~---- --3--3--3--3--3--3----1~----|------------------- ----------------------------| (Palm Mute)
------------------------------------------|--1--1--1--1--1--1------------------------|------------------------------------------| x1--2--2--2--2--2--2----5--5--5--5--5--5----|--3--3--3--3--3--3----5--5--5--5--5--5----|----------------------3--3--3--3--3--3----|
------------------------------------------|------------------------------------------|--3--3--3--3--3--3------------------------| x1--3--3--3--3--3--3----3--3--3--3--3--3----|--1--1--1--1--1--1----3--3--3--3--3--3----|----------------------1--1--1--1--1--1----|
------------------------------------------|--1--1--1--1--1--1------------------------|------------------------------------------| x1--2--2--2--2--2--2----5--5--5--5--5--5----|--3--3--3--3--3--3----5--5--5--5--5--5----|----------------------3--3--3--3--3--3----|
------------------------------------------|------------------------------------------|--3--3--3--3--3--3------------------------| x1--3--3--3--3--3--3----3--3--3--3--3--3----|--1--1--1--1--1--1----3--3--3--3--3--3----|----------------------1--1--1--1--1--1----|
------------------------------------------|--1--1--1--1--1--1------------------------|------------------------------------------| x1--2--2--2--2--2--2----5--5--5--5--5--5----|--3--3--3--3--3--3----5--5--5--5--5--5----|----------------------3--3--3--3--3--3----|
------------------------------------------|------------------------------------------|--3--3--3--3--3--3------------------------| x1--3--3--3--3--3--3----3--3--3--3--3--3----|--1--1--1--1--1--1----3--3--3--3--3--3----|----------------------1--1--1--1--1--1----|
------------------------------------------|--1--1--1--1--1--1------------------------|------------------------------------------| x1--2--2--2--2--2--2----5--5--5--5--5--5----|--3--3--3--3--3--3----5--5--5--5--5--5----|----------------------3--3--3--3--3--3----|
------------------------------------------1~----|------------------------------------------2~----|--3--3--3--3--3--3------------------------2~----| x1--3--3--3--3--3--3----3--3--3--3--3--3----------|--1--1--1--1--1--1----3--3--3--3--3--3----------|----------------------1--1--1--1--1--1----------|
Tap to rate this tab
 
# A B C D E F G H I J K L M N O P Q R S T U V W X Y Z