Tonic – Daffodil tab

Tabbed & Arranged by: Josh Daley

Tuning: E A D G B E (Standard)



Intro & Interlude:

--0--0--0--0--0--0--0--0---0-0-0-0--|--0--0--0--0--0--0--0--0---0-0-0-0--|--4--4--4--9--9--9--0--0---0-0-0-0--|--5--5--5-10-10-10-10-10--1010-9-9--|--5--5--5-10-10-10-10-10--10101010--|--3--3--3--8--8--8--8--8---8-8-8-8--| ^ ^ ^ ^ ^ ^ ^ ^ ^ v ^ v
Verse:
--3----0----3-----3----3----3----3----3----|--0----1----0-----1----0----1----0---^1----|--0----0----0-----0----0----0----0----0----|--0----2----0-----0----0----0----0----0----|--x----3----x-----2----x----2----x---^2----|--3----3----3-----3----3----3----3----3----|
Pre-chrous:
--2----0----|--3----1----|--4----0----| x2--4----2----|--2----3----|-------3----|
Chorus:
--3-3-3-3-3-3-3-3--|--0-0-0-0-0-0-0-0--|--0-0-0-0-0-0-0-0--|--0-0-0-0-0-0-0-0--|--x-x-x-x-x-x-x-x--|--3-3-3-3-3-3-3-3--| (Crescendo)
--0----3----0----|--1----0----1----|--0----0----0----|--2----0----2----|--3----x----3----|--3----3----3----|
--0----0----0----0----|--1----0----1----1----|--2----0----2----0----|--2----2----2----2----|--0----2----0----3----|-------0---------3----|
Bridge:
--0----2----0----|--1----3----1----|--0----4----0----|--2----4----2----|--3----2----3----|--3---------3----|
Final Chorus:
--3----|--0----|--0----|--0----|--x----|--3----| (Let ring)
--0----3----0----|--1----0----1----|--0----0----0----|--2----0----2----|--3----x----3----|--3----3----3----|
--0----0----0----0----|--1----0----1----1----|--2----0----2----0----|--2----2----2----2----|--0----2----0----3----|-------0---------3----|
Outro:
--0--0--0--0--0--0--0--0---0-0-0-0---3----|--0--0--0--0--0--0--0--0---0-0-0-0---0----|--4--4--4--9--9--9--0--0---0-0-0-0---0----|--5--5--5-10-10-10-10-10--1010-9-9---0----|--5--5--5-10-10-10-10-10--10101010---x----|--3--3--3--8--8--8--8--8---8-8-8-8---3----| ^ ^ ^ ^ ^ ^ ^ ^ ^ v ^ v (Arpeggiated + let ring)
Please rate this tab:
x1.0