Tonic – Liar tab ver. 2

Tabbed & Arranged by: Josh Daley

Tuning: E B E A Db E (both Guitars)

Guitar 1: Tablature  (Acoustic)
Guitar 2: Tablature  (Acoustic/Electric)



Intro & Interlude:

   Guitar 1 & 2:

----------------------------| ----------------------------| ----------------------------| ----------------------------| -------0--0------0--0-----0-| --5^3--0--0-5^3--0--0-5^3-0-|
Verse: Guitar 2:
---------------------10~~~\--------12~~-| --------12~~\---------------------------| --------12~~\---------------------------| ----------------------------------------| ----------------------------------------| ----------------------------------------|
Chorus: Guitar 1:
--0----0----0----0----| --0----3----3----3----| --4----0----2----0----| --4----0----0----0----| --2----5----0----2----| -------5----0----2----|
--0----0----0----0----0----| --0----3----3----3----0----| --4----0----2----0----7----| --4----0----0----0----0----| --2----5----0----2----5----| -------5----0----2----5----|
Guitar 2:
----------------------| ----------------------| --4-------------------| --4----5----0----2----| --2----5----0----2----| -------5----0----2----|
---------------------------| ---------------------------| --4------------------------| --4----5----0----2----5----| --2----5----0----2----5----| -------5----0----2----5----|
Verse: Guitar 2:
----------------------------| ----------------------------| ----------------------------| -------------------------0~-| ---------3^5---------5------| --0-3^0-------0-3^0----0----|
Solo: Guitar 1:
--0----0----| --3----3----| --0----2----| x3 --0----0----| --5----0----| --5----0----|
Guitar 2: (Start on the second to last bar of the interlude)
-------------------------------------------------------10/12~~--| --10----\------------------------7-7-7/9-9-9/13-13-13-----------| --10----\---------7-7-7/10-10-10-x-x-x-x-x-x--x--x--x-----------| --12----\---------x-x-x--x--x--x-5-5-5/7-7-7/10-10-10-----------| ------------------5-5-5/-8--8--8--------------------------------| ----------------------------------------------------------------|
-------------------------------------------------------| --12^10----12^10----12^10----12^10----14b-14--12^0-\---| --12^10----12^10----12^10----12^10----14b-14--12~~~\---| --------12-------12-------12-------12------------------| -------------------------------------------------------| -------------------------------------------------------|
----------15-------15-------15-------15-------------15^12~~~---| -/--13b15----13b15----13b15----13b15----13b15-13^10------------| ---------------------------------------------------------------| ---------------------------------------------------------------| ---------------------------------------------------------------| ---------------------------------------------------------------|
---------------------------------------------------------| ---------------------------------------------------------| ---------------------------12-10-12b14r12b14--------4----| ------3^0-3^5/-------12-10---------------------10~~-4----| --3^0----------12-10--------------------------------2----| ---------------------------------------------------------|
Outro: (before outro play intro/interlude x2) Guitar 1:
----------------------------| ----------------------------| ----------------------------| x2 --3---3---3---3---3---3---3-| --3---3---3---3---3---3---3-| --3---3---3---3---3---3---3-|
--------------------------------------------------------| --------------------------------------------------------| --------------------------------------------------------| ----------3---3---3---3---3---3---3---3---3---3---3---3-| -------0--3---3---3---3---3---3---3---3---3---3---3---3-| --5^3--0--3---3---3---3---3---3---3---3---3---3---3---3-|
----------------------------| ----------------------------| ----------------------------| x3 ----------------------------| -------0--0------0--0-----0-| --5^3--0--0-5^3--0--0-5^3-0-|
--------------------------0-----| --------------------------3-----| --------------------------2-----| Let Ring --------------------------0-----| -------0--0------0--0-----0-----| --5^3--0--0-5^3--0--0-5^3-0-----|
Guitar 2:
----------------------------| ----------------------------| ----------------------------| (repeat until second to last bar) ----------------------------| -------0--0------0--0-----0-| --5^3--0--0-5^3--0--0-5^3-0-|
-------------------------------| -------------------------------| -------------------------------| Let Ring --------------------------0----| -------0--0------0--0-----0----| --5^3--0--0-5^3--0--0-5^3-0----|
Please rate this tab:
x1.0