Tony Iommi – Just Say No To Love tab

-----------------------------------------------------------------------------

Tuning Info: Tune to C#, Legahatto,63 Beats/mi., 4/4 count

Note:  Lyrics may not aligh with music and multiple guitar parts may not
       align due to space constraints.

[p]------------------------|-----------------14~~~--|------------------------|------------------------|------------------------|-7-delay----------------|pm vp in
[p]----------------------------------------------------|----------------------------------------------------|-----------11------------------------11--------11---|-----10--11---11-10--11-10-----10--11----11-10------|---9-------------------------9----------------------|----------------------------------------------------|{Guitar 1}
----------------------------------------------------------|----------------------------------------------------------|----------------------------------------------------------|----------------------------------------------------------|---------------------------------------------------6h7p6--|---2--------------------------2-------------------------8-|{Guitar 2}
----------------------------------------------------|----------------------------------------------------|-----------11------------------------11--------11---|-----10--11---11-10--11-10-----10--11----11-10------|---9-------------------------9----------------------|----------------------------------------------------|{Guitar 1}
----------------------------------------------------------|----------------------------------------------------------|----------------------------------------------------------|----------------------------------------------------------|---------------------------------------------------6h7p6--|---2--------------------------2-------------------------8-|{Guitar 2}
----------------------------------------------------|----------------------------------------------------|-----------11------------------------11--------11---|-----10--11---11-10--11-10-----10--11----11-10------|---9-------------------------9----------------------|----------------------------------------------------|{Guitar 1}
-----------------------------------------------------------|--14----14----13----13----14----14----133----13------------|-----13----13----13----13----13----13-----13----13---------|-----------------------------------------------------------|-----------------------------------------------------------|-----------------------------------------------------------|{Keyboard 1}
----------------------------------------------------------|----------------------------------------------------------|----------------------------------------------------------|----------------------------------------------------------|---------------------------------------------------6h7p6--|---2--------------------------2-------------------------8-|{Guitar 2}Jealous black and envy green, no one died and left you queen
----------------------------------------------------|----------------------------------------------------|-----------11------------------------11--------11---|-----10--11---11-10--11-10-----10--11----11-10------|---9-------------------------9----------------------|----------------------------------------------------|{Guitar 1}
-----------------------------------------------------------|--14----14----13----13----14----14----133----13------------|-----13----13----13----13----13----13-----13----13---------|-----------------------------------------------------------|-----------------------------------------------------------|-----------------------------------------------------------|{Keyboard 1}
----------------------------------------------------------|----------------------------------------------------------|----------------------------------------------------------|----------------------------------------------------------|---------------------------------------------------6h7p6--|---2--------------------------2-------------------------8-|{Guitar 2}Of rotten flesh and broken bones, place your ass upon the throne
CHOURSE 1-------------------------------------------------------------------------|-------------------------------------------------------------------------|-------------------------------2-----------------------------------------|-------------------------------2-----------------------------------------|----4--3-2-0----2--2--0-3p2p0-0------4---3-2-0----2--2--0-3p2p0-0--------|-2~~--------2~-0-------------2----2~~---------2~-0---------------2-------|let ring} Just say No to Love Just say No to Love
----------------------------------------------------|----------------------------------------------------|-----------11------------------------11--------11---|-----10--11---11-10--11-10-----10--11----11-10------|---9-------------------------9----------------------|----------------------------------------------------|{Guitar 1}
-----------------------------------------------------------|--17------------16------------13--------------11-----------|-----------------------------------------------------------|-----------------------------------------------------------|-----------------------------------------------------------|-----------------------------------------------------------|{Keyboard 1}
----------------------------------------------------------|----------------------------------------------------------|----------------------------------------------------------|----------------------------------------------------------|---------------------------------------------------6h7p6--|---2--------------------------2-------------------------8-|{Guitar 2}Multihued transparency, of the girl you'd like to be
----------------------------------------------------|----------------------------------------------------|-----------11------------------------11--------11---|-----10--11---11-10--11-10-----10--11----11-10------|---9-------------------------9----------------------|----------------------------------------------------|{Guitar 1}
-----------------------------------------------------------|--17------------16------------13--------------11-----------|-----------------------------------------------------------|-----------------------------------------------------------|-----------------------------------------------------------|-----------------------------------------------------------|{Keyboard 1}
----------------------------------------------------------|----------------------------------------------------------|----------------------------------------------------------|----------------------------------------------------------|---------------------------------------------------6h7p6--|---2--------------------------2-------------------------8-|{Guitar 2}A special frozen place in hell, preserved for those who love themselves
CHOURSE
F# G# F# G# F# G# F# G#-----2-------4-------2-------4-------2--------4-------2-------4--------------|-----2-------4-------2-------4-------2--------4-------2-------4--------------|-----------------------------------------------------------------------------|-----------------------------------------------------------------------------|-3-------6-------3-------6-------3--------6-------3-------6-----0-3p2p0-0----|-2-------4-------2-------4-------2--------4-------2-------4----2-----------2-|Left is right and right is wrong, none for all and all for noneI've had enough, say no to love, No to Love
LEAD
------------------------------------------------------------------------------|-14~~~----19~~~-19p17--19~~~--19p17-12-114~~~~~~~-------------------------5~~-|-14~~~---------------16---------------------------5-4--2--2-------------------|-14~~~--------------------------------------------------4---4-2-----2--2------|---------------------------------------------------------------4-4-4--4-------|------------------------------------------------------------------------------|{Guitar 1} {pm}
------------------------------------------------------------------------|------------------------------------------------------------------------|-------------------------------2----------------------------------------|-------------------------------2----------------------------------------|----4--3-2-0----2--2--0-3p2p0-0------4---3-2-0----2--2--0-3p2p0-0-------|-2~~--------2~-0-------------2----2~~---------2~-0---------------2------|{Guitar 2} (Lead ends here)
---------------------------------------------------|-5-7^(9s`7)-5~~~-5p2--2----------------------------|--------------------4---4p2-2-4^(5-5-5)--4p2-------|---------------------------4----------------4------|---------------------------------------------------|---------------------------------------------------|{Guitar 1}
----------------------------------------------------|----------------------------------------------------|-----------11------------------------11--------11---|-----10--11---11-10--11-10-----10--11----11-10------|---9-------------------------9----------------------|----------------------------------------------------|{Guitar 1}
----------------------------------------------------------|----------------------------------------------------------|----------------------------------------------------------|----------------------------------------------------------|---------------------------------------------------6h7p6--|---2--------------------------2-------------------------8-|{Guitar 2}
-----------------------------------------------------------|--14----14----13----13----14----14----133----13------------|-----13----13----13----13----13----13-----13----13---------|-----------------------------------------------------------|-----------------------------------------------------------|-----------------------------------------------------------|{Keyboard 1}Jon Lord said that your were killed, not possibly be more thrilled
----------------------------------------------------|----------------------------------------------------|-----------11------------------------11--------11---|-----10--11---11-10--11-10-----10--11----11-10------|---9-------------------------9----------------------|----------------------------------------------------|{Guitar 1}
----------------------------------------------------------|----------------------------------------------------------|----------------------------------------------------------|----------------------------------------------------------|---------------------------------------------------6h7p6--|---2--------------------------2-------------------------8-|{Guitar 2}
-----------------------------------------------------------|--14----14----13----13----14----14----133----13------------|-----13----13----13----13----13----13-----13----13---------|-----------------------------------------------------------|-----------------------------------------------------------|-----------------------------------------------------------|{Keyboard 1} A party thrown (I'm so excited) since you're dead you're not invited
----------------------------------------------------|----------------------------------------------------|-----------11------------------------11--------11---|-----10--11---11-10--11-10-----10--11----11-10------|---9-------------------------9----------------------|----------------------------------------------------|{Guitar 1}
----------------------------------------------------------|----------------------------------------------------------|----------------------------------------------------------|----------------------------------------------------------|---------------------------------------------------6h7p6--|---2--------------------------2-------------------------8-|{Guitar 2}
-----------------------------------------------------------|--14----14----13----13----14----14----133----13------------|-----13----13----13----13----13----13-----13----13---------|-----------------------------------------------------------|-----------------------------------------------------------|-----------------------------------------------------------| {Keyboard 1}
-----------------------------------------------------------|--17------------16------------13--------------11-----------|-----------------------------------------------------------|-----------------------------------------------------------|-----------------------------------------------------------|-----------------------------------------------------------|{Keyboard 2} On your grave I made a wish, (You beneath me is such bliss)
----------------------------------------------------|----------------------------------------------------|-----------11------------------------11--------11---|-----10--11---11-10--11-10-----10--11----11-10------|---9-------------------------9----------------------|----------------------------------------------------|{Guitar 1}
----------------------------------------------------------|----------------------------------------------------------|----------------------------------------------------------|----------------------------------------------------------|---------------------------------------------------6h7p6--|---2--------------------------2-------------------------8-|{Guitar 2}
-----------------------------------------------------------|--14----14----13----13----14----14----133----13------------|-----13----13----13----13----13----13-----13----13---------|-----------------------------------------------------------|-----------------------------------------------------------|-----------------------------------------------------------| {Keyboard 1}
-----------------------------------------------------------|--17------------16------------13--------------11-----------|-----------------------------------------------------------|-----------------------------------------------------------|-----------------------------------------------------------|-----------------------------------------------------------|{Keyboard 2}A fitting end for a phony, you dumped me for Tony Iommi
F# G# F# G# F# G# F# G#-----2-------4-------2-------4-------2--------4-------2-------4--------------|-----2-------4-------2-------4-------2--------4-------2-------4--------------|-----------------------------------------------------------------------------|-----------------------------------------------------------------------------|-3-------6-------3-------6-------3--------6-------3-------6-----0-3p2p0-0----|-2-------4-------2-------4-------2--------4-------2-------4----2-----------2-|
-------------------------------------------------------------------------|-------------------------------------------------------------------------|-------------------------------------------------------------------------|-----3--------------3---------------3---------------3--------------------|---3--3----6-------3--3---6-------3--3-----6-------3--3---6--------------|-2-------4---4----2------4--4----2--------4--4----2------4--4------------|{Guitar 2}Left is right and right is wrong, none for all and all for noneI've had enough, say no to love, No to Love
F# G# F# G# F# G# F# G#-----2-------4-------2-------4-------2--------4-------2-------4--------------|-----2-------4-------2-------4-------2--------4-------2-------4--------------|-----------------------------------------------------------------------------|-----------------------------------------------------------------------------|-3-------6-------3-------6-------3--------6-------3-------6-----0-3p2p0-0----|-2-------4-------2-------4-------2--------4-------2-------4----2-----------2-|
-------------------------------------------------------------------------|-------------------------------------------------------------------------|-------------------------------------------------------------------------|-----3--------------3---------------3---------------3--------------------|---3--3----6-------3--3---6-------3--3-----6-------3--3---6--------------|-2-------4---4----2------4--4----2--------4--4----2------4--4------------|{Guitar 2}Left is right and right is wrong, none for all and all for noneI've had enough, say no to love, No to Love
Keyboard Bridge
-------------------------------------------------------------------------|-------------------------------------------------------------------------|-------------------------------------------------------------------------|-----3--------------3---------------3---------------3--------------------|---3--3----6-------3--3---6-------3--3-----6-------3--3---6--------------|-2-------4---4----2------4--4----2--------4--4----2------4--4------------|{Guitar 2}Left is right and right is wrong, none for all and all for noneI've had enough, say no to love, No to Love
F# G# F# G# F# G# F# G#-----2-------4-------2-------4-------2--------4-------2-------4--------------|-----2-------4-------2-------4-------2--------4-------2-------4--------------|-----------------------------------------------------------------------------|-----------------------------------------------------------------------------|-3-------6-------3-------6-------3--------6-------3-------6-----0-3p2p0-0----|-2-------4-------2-------4-------2--------4-------2-------4----2-----------2-|
-------------------------------------------------------------------------|-------------------------------------------------------------------------|-------------------------------------------------------------------------|-----3--------------3---------------3---------------3--------------------|---3--3----6-------3--3---6-------3--3-----6-------3--3---6--------------|-2-------4---4----2------4--4----2--------4--4----2------4--4------------|{Guitar 2}Left is right and right is wrong, none for all and all for noneI've had enough, say no to love, No to Love
-------------------------------------------------------------------------|-------------------------------------------------------------------------|-------------------------------2-----------------------------------------|-------------------------------2-----------------------------------------|----4--3-2-0----2--2--0-3p2p0-0------4---3-2-0----2--2--0-3p2p0-0--------|-2~~--------2~-0-------------2----2~~---------2~-0---------------2-------|let ring} Just say No to Love Just say No to Love, uhhh
Keyboard Outro
----------------|----------------|----------------|----------------|----------------|-7-delay--------|pm
Please rate this tab:
x1.0