Tool - 10000 Days tab

All of the tabs seen here were previously submitted by individuals who
took the time to figure them out. I simply like to have all the tabs together
so that i can play the album all the way through. I did not do any of these
tabs myself.

1.Vicarious
2.Jambi
3.Wings for Marie
4.10,000 Days
5.The Pot
6.Lipan Conjuring (NO GUITAR)
7.Lost Keys (Blame Hofmann)
8.Rosetta Stoned
9.Intension
10.Right in Two
11.Viginti Tres (NO GUITAR)

___________________________________________________________________________
Vicarious Tab by Tool, www.Ultimate-Guitar.Com

Vicarious - Tool

Tabbed by Pier-Philippe de Chevigny LeBlanc
ashthezombiesasskicker@hotmail.com
Intro

Guitar 1

-----------------------------------------|-----------------------------------------|-------5-----------7---7---5-------------|-0-7-0---7-0-7-0-5---0---0---7-0-7-3-5-2-|-----------------------------------------|-----------------------------------------|
------------------------------------------|------------------------------------------|-------5---------5---------5--------------|-0-7-0---7-0-7-0---7-0-7-0---7-0-7-3-5-2--|------------------------------------------|------------------------------------------|
* = Let ring the very last time Guitar 2 (similar to the bass riff, except for a few notes)
------------------------------------------|------------------------------------------|------------------------------------------|-12-0-0-10-0-0-12-0-0-12-14-0-0-10-0-0-12-|------------------------------------------|------------------------------------------|
--------------------------------------------------------|--------------------------------------------------------|--------------------------------------------------------|-0-0-0-15-0-0-10-0-0-10-0-0-12-14-0-0-10-0-0-12-0-10-12-|--------------------------------------------------------|--------------------------------------------------------|
Main riff 1
---------------------------------|---------------------------------|---------------------------------|---------------------------------|----------------------------15---|-0---0-12-0---0--10-0--15h17-----| x4
Main riff 2-------------------------------|-------------------------------|-------------------------------|--------------------------10---|-13/12-12-12-12-12/13------8---|--0--0--0--0--0--0--0-0-0------| x4 PM PM
Bridge to Chorus - Play main riff 2 twice than :
-------------------------------------|-------------------------------------|-------------------------------------|--------------------------10-----10--|-13/12-12-12-12-12/13------8-----10--|--0--0--0--0--0--0--0-0-0----0-0-10--| PM PM
--------------------------------|--------------------------------|--------------------------------|-0------3-0----5-0----3-0----1--|-0------3-0----5-0----3-0----1--|-0--00--3-0-00-5-0-00-3-0-00-1--| PM PM PM PM
Bridge back to chorus - Play main riff 1 once than:
---------------------------------|---------------------------------|---------------------------------|---------------------------------|----------------------------15---|-0---0-12-0---0--10-0--0h15h17---| PM PM
------------------------------------|------------------------------------|------------------------------------|------------------------------------|----------------------------15------|-0---0-12-0---0--10-0--15h17--h17---|
---------------------------------|---------------------------------|---------------------------------|---------------------------------|----------------------------15---|-0---0-12-0---0--10-0--0h15h17---| PM PM
Verse 2 Guitar one
-----------------------------------------|-----------------------------------------|---7-----5-0---------7-------5---------7-|-----0-3-----0-7-3-5---0-7-0---7-0-7-0---|-----------------------------------------|-----------------------------------------|
-------------------------------------------|-------------------------------------------|-------5---------7-------5---------5---5---|-0-7-0---7-0-7-0---0-7-0---7-0-7-0---7---7-|-------------------------------------------|-------------------------------------------|
Second Bridge to Chorus - Play the Main riff 2 twice, than play the first mesure of the First Bridge to Chorus, than repeat Main riff once. Chorus
--------------------------------------------------------------------------|--------------------------------------------------------------------------|-999101010999-------------------------------------------------------------|--------------101010--0---3/55--0------------------5-0--------------------|-777-8-8-8777-101010--0---3/55--0-------3--------5-5-0--------------------|--------------101010--0---3/55--0--0h3h5--0-0h5h7--5-0--------------------| PM--------------|
Main riff 1 x 3 "Why can't we just admit it" This is very easy... but anyway...
A-------------------------|D-0000-0-00-00--000-------| PM---------------------|
Break
A-------------------------|D-0000-0-00----00---------| PM---------------------|
"Solo" - With tremolo and forced harmonics*Only the last timeD-------10--8--//12//---|A-5--6------------------|D-----------------------| *******
Fucked up part when you can't a single word from MJK
-----------------------------------------------|-----------------------------------------------|-----------------------------------------------|-----------------------------------------------|--------5--------5----3-----5/7--------3----5--|PM-0000---0-00-0---00---0000----0-00-0---00----|
--------------------------------------------|--------------------------------------------|--------------------------------------------|--------------------------------------------|--------8-------7---3-----5/7-------3----5--|PM-0000--0-00-0--00---0000---0-00-0---00----| Play these 2 parts twice than
-----------------------------------------------------|-----------------------------------------------------|-----------------------------------------------------|-----------------------------------------------------|--------5--------5------3h5------7--------3------3h5-|PM-0000---0-00-0---0h3h5----0000---0-00-0---0h3h5----|
-----------------------------------------------------|-----------------------------------------------------|-----------------------------------------------------|-----------------------------------------------------|--------8--------7------3h5------7--------3------3h5-|PM-0000---0-00-0---0h3h5----0000---0-00-0---0h3h5----|
Repeat intro then Intro variation
-------------------------|-------------------------|-------5------------0h2--|-0-7-0---7-3-0-3-0h3-----|-------------------------|-------------------------|
Variation 2
----------------------------|----------------------------|-7-----5-----7-----8-7------|---0-0---0-0---0-0-----0-0--|----------------------------|----------------------------|
Build up 1
--------------------------------------------------|--------------------------------------------------|--------------------------------------------------|----7-----5-----7------8-7------5------7----5-----|----5-----3-----5------6-5------3------5----3-----|PM---0000--0000---0000-----0000---0000---00---00--|
Build up 2
---------------------------------------------------------|---------------------------------------------------------|---------------------------------------------------------|-12------10------12------13-12------10------12----10-----|-12------10------12------13-12------10------12----10-----|-12-0000-10-0000-12-0000-13-12-0000-10-0000-12-00-10-00--|PM ---- ---- ---- ---- ---- -- --
---------------------------------------------------------|-15------13------15------16-15------13------15----13-----|-14------12------14------15-14------12------14----12-----|-12------10------12------13-12------10------12----10-----|-12------10------12------13-12------10------12----10-----|-12-0000-10-0000-12-0000-13-12-0000-10-0000-12-00-10-00--|PM ---- ---- ---- ---- ---- -- --
Repeat the First Bridge to Chorus Final Chorus
----------------------------------------|----------------------------------------|-999101010999---------------------------|--------------101010--0---3-0-5-0-3-0-0-|-777-8-8-8777-101010--0---3-0-5-0-3-0-0-|--------------101010--0---3-0-5-0-3-0-0-|
----------------------------------------|--------------------------6---8---6-----|-999101010999-------------5---7---5-----|--------------101010--0---3-0-5-0-3-0-0-|-777-8-8-8777-101010--0---3-0-5-0-3-0-0-|--------------101010--0---3-0-5-0-3-0-0-|
----------------------|----------------------|-999101010999---------|--------------101010--|-777-8-8-8777-101010--|--------------101010--|
Outro
------------------------------|------------------------------|------------------------------|-------3--------2-------------|-------3--------2--------3h5--|--00-0-3-0-00-0-2-0-0h3h5-----| x3PM-- - - -- - - --------
------------------|------------------|------------------|-------3--------2-|-------3--------2-|--00-0-3-0-00-0-2-| x1PM-- - - -- -|
-------------------------|-------------------------|-------------------------|-----------0h3h5---------|------0h3h5-----0h3h5----|-0h3h5-------------------| x4PM-----------------------|
____________________________________________________________________________ Jambi Tab by Tool, www.Ultimate-Guitar.Com TOOL Jambi 10,000 Days 2006 Tuning: Do I even need to say? Ah, for fun. Drop D. Tool. Tabbed by Sean Padden nondeesk@hotmail.com What's up. This is my first tab ever, I've been figuring out songs on guitar on my own a long time, and I've finally done one that doesn't already have a tab! So here is my shot at this excellent new Tool tune. Sounds very Undertowish to me. Along with a bit of this album. Which is excellent might I add. :) Enough of this bullshitting. Enjoy! Let's see...I'll make a little key for what is relevant in this song. h Hammer On p Pull Off + Palm Muted ~ Vibrato / Slide Uh, I think that's it. Let's get to the playing shall we? Riff 1: Intro (0:00-0:14)
e------------------------------------------|B------------------------------------------|G------------------------------------------|D------------------------------------------|A------------------------------------------|D-3p2p0-0000-5p4p0-00-3p2p0-00-10p8p0-0000-| +++++ ++++ +++++ ++ +++++ +++++++++ ++++
Riff 2: (0:15-1:02)e-----------------------------------------|B-----------------------------------------|G-----------------------------------------|D-----------------------------------------|A-----------------------------------------|D-3p2p0-0000-3p2p0-0000-0-----------------| +++++ ++++ +++++ ++++ +
Bass Break (1:03-1:14) Riff 3: (1:15-1:42)
e-----------------------------------------|B-----------------------------------------|G-----------------------------------------|D-----------------------------------------|A-----------------------------------------|D-000000-000000-0-------------------------| ++++++ ++++++ +
Riff 4*: (1:43-1:51) *NOTE: on the forth (and last) time of playing this riff, you will only play the first and let the last note of that part (being the 3rd fret on the D string,) ring, instead of it.
e-----------------------------------------|B-----------------------------------------|G-----------------------------------------|D-----------------------------------------|A-----------------------------------------|D-0-3355-3-3355-33-0----------------------| + ++++ + ++++ ++ +
Riff 5: (1:44-2:03)
e-----------------------------------------|B-----------------------------------------|G-----------------------------------------|D-----------------------------------------|A-0------3--------0-----------------------|D-0-3355-3-335533-0-----------------------| ++++ ++++++
Bass Break 2 (2:03-2:13) Variation of Riff 3 (2:13-2:33) *It's getting tedious, listen, you'll hear the exact ryhthm =p* Repeat Riff 4 (2:33-2:42) Repeat Riff 5 (2:42-3:03) Repeat Riff 2 (3:03-3:40) Variation of Riff 3 (3:41-3:55) Riff 6: (3:56-)
e-----------------------------------------|B-----------------------------------------|G-----------------------------------------|D-----------------------------------------|A-----------------------------------------|D-000-000-00-000-0------------------------| +++ +++ ++ +++
Solo 1! (4:09-5:00)
e-----------------------------------------|B-----------------------------------------|G-10~~~~/12-12/9~~~~7~~~7---9-------------| (2x)D-----------------------------------------|A-----------------------------------------|D-----------------------------------------|
e---------------------------8----8----8---|B-8-------10-8~~8h10p8--7~~~-7----7----7--|G---10~~~~--------------------------------| (2x)D-----------------------------------------|A-----------------------------------------|D-----------------------------------------|
Riff 7: (5:01-5:13)
e-----------------------------------------|B-----------------------------------------|G-----------------------------------------|D-----------------------------------------|A----3p0--------3p0-3h5-------------------|D-3h5---3~~~-3h5-------0~~~~--------------|
e-----------------------------------------|B-----------------------------------------|G-----------------------------------------| (2x)D-----------------------------------------|A----3p0------- -3p0-3h5------------------|D-3h5---3/15~~~-3h5-------0~~~~-----------|
Do a pick scrape after this leading into the next riff. Make it sweet. Riff 8 (5:15-5:56)
e-----------------------------------------|B-----------------------------------------|G-----------------------------------------|D-----------------------------------------|A-00-00-00-000-000------------------------|D-00-00-00-000-000------------------------| ++ ++ ++ +++ +++
e------------------------------------------|B------------------------------------------|G------------------------------------------|D------------------------------------------|A------------------------------------------|D-00-00-00-000-000-------------------------| ++ ++ ++ +++ +++
Riff 9 (5:56-6:36) Finally time to stop palm muting constantly!
e------------------------------------------|B--10--------------------------------------|G---9--------------------------------------|D-0-7-0-3h5-3h5-3--3-3h5-5/7---------------|A-0-7-0-3h5-3h5-3--3-3h5-5/7---------------|D-0-7-0-3h5-3h5-3--3-3h5-5/7---------------|
2xe------------------------------------------|B--10--------------------------------------|G---9--------------------------------------|D-0-7-0-3h5-3h5-3--3-----------------------|A-0-7-0-3h5-3h5-3--3-----------------------|D-0-7-0-3h5-3h5-3--3-3355223300------------| ++++++++++
e-----------------------------------------|B-----------------------------------------|G---2-------------------------------------|D-0---0-3h5-3h5-3~3-3h5-5/7---------------| 3xA-----------------------------------------|D-----------------------------------------|
e-----------------------------------------|B-----------------------------------------|G---2-------------------------------------|D-0---0-3h5-3h5-3~3-3355223300------------|A-----------------------------------------|D-----------------------------------------|
Long Outro (6:36-7:28)
e-----------------------------------------|B-----------------------------------------|G-----------------------------------------|D-----------------------------------------| 8xA------3p0--------3p0-3h5-----------------|D-0-3h5---3~~~-3h5-------0~~~~------------|
e-------------------------------------------------|B-------------------------------------------------|G-------------------------------------------------|D-------------------------------------------------| 4xA-3p2p0-0000-3p2p0-00-3p2p0-00-3p2p0-00-3p2p0-00--|D-3p2p0-0000-3p2p0-00-3p2p0-00-3p2p0-00-3p2p0-00--| +++++ ++++ +++++ ++ +++++ ++ +++++ ++ +++++ ++
e-----------------------------------------|B-----------------------------------------|G-----------------------------------------|D-----------------------------------------| 4xA-00-000-000----3p0-3h5-------------------|D-00-000-000-3h5--------------------------| ++ +++ +++
e-----------------------------------------|B-----------------------------------------|G-----------------------------------------|D-----------------------------------------|A----------------------0------------------|D-00-000-00-00000-0000-0------------------| ++ +++ ++ +++++ ++++
END ABRUPTLY. So, there ya have it, my first tab. It sounds very accurate to me, any questions or comments PLEASE don't hesitate to contact me. email: nondeesk@hotmail.com aim: nondeesk Enjoy the new album, and hopefully you're lucky enough to see them on their upcoming tour... Like I am. ;) _________________________________________________________________________ Wings For Marie Pt 1 Tab by Tool, www.Ultimate-Guitar.Com TOOL - WINGS FOR MARIE (PT. 1) Tabbed by: Marcelo Crispim Email: marcelo.crispim@hotmail.com Artist: Tool Song: Wings for Marie (Pt. 1) Album: 10,000 Days Tuning: D A D B G e
0:00 (clean) (listen to the song to know the right rhythm)|-0---------||----1------| Lots of times|-------2---||-----------||-----------||-----------|
1:40|-1--------3--------1--------1~----0~----------0~----3~----0~---||----1--------1--------1-----------------3~---------------------||-------2--------2--------2-------------------------------------||---------------------------------------------------------------||---------------------------------------------------------------||---------------------------------------------------------------|
1:44|-0~--0~--0~--0~--0~--0~--0~--3~--0~--0~--0~--0~--0~--0~--0~---||--------------------------------------------------------------||--------------------------------------------------------------||--------------------------------------------------------------||--------------------------------------------------------------||--------------------------------------------------------------|
1:52|-0---------||----1------| x16|-------2---||-----------||-----------||-----------|
1:58|-1--------3--------1--------1~----0~----------0~----3~----0~---||----1--------1--------1-----------------3~---------------------||-------2--------2--------2-------------------------------------||---------------------------------------------------------------||---------------------------------------------------------------||---------------------------------------------------------------|
2:02|-0~--0~--0~--0~--0~--0~--0~--3~--0~--0~--0~--0~--0~--0~--0~---||--------------------------------------------------------------||--------------------------------------------------------------||--------------------------------------------------------------||--------------------------------------------------------------||--------------------------------------------------------------|
2:10|-0---------||----1------| x16|-------2---||-----------||-----------||-----------|
2:19|-1--------3--------1--------1~----0~----------0~----3~----0~---||----1--------1--------1-----------------3~---------------------||-------2--------2--------2-------------------------------------||---------------------------------------------------------------||---------------------------------------------------------------||---------------------------------------------------------------|
2:23|-0~--0~--0~--0~--0~--0~--0~--3~--0~--0~--0~--0~--0~--0~--0~---||--------------------------------------------------------------||--------------------------------------------------------------||--------------------------------------------------------------||--------------------------------------------------------------||--------------------------------------------------------------|
2:30|-0---------||----1------| x16|-------2---||-----------||-----------||-----------|
2:39|-1--------3~----1--------1~----0~----------0~----3~----0~---||----1--------------1-----------------3~---------------------||-------2--------------2-------------------------------------||------------------------------------------------------------||------------------------------------------------------------||------------------------------------------------------------|
2:43|-0~--0~--0~--0~--0~--0~--0~--3~--0~--0~--0~--0~--0~--0~--0~---||--------------------------------------------------------------||--------------------------------------------------------------||--------------------------------------------------------------||--------------------------------------------------------------||--------------------------------------------------------------|
2:50|-0---------||----1------| x16|-------2---||-----------||-----------||-----------|
2:58|-1--------3~----1--------1~----0~----------0~----3~----0~---||----1--------------1-----------------3~---------------------||-------2--------------2-------------------------------------||------------------------------------------------------------||------------------------------------------------------------||------------------------------------------------------------|
3:03|-0~--0~--0~--0~--0~--0~--0~--3~--0~--0~--0~--0~--0~--0~---||----------------------------------------------------------||----------------------------------------------------------||----------------------------------------------------------||----------------------------------------------------------||----------------------------------------------------------|
3:08|--------------------------------------||-3~--2~--2~--2~--2~--2~--2~--2~--2\---||--------------------------------------||--------------------------------------||--------------------------------------||--------------------------------------|
3:14 (with delay)|------------------------------------||------------------------------------| x3|------------------------------------||-2--3--5--3--2--3--2~----2~----2~---||------------------------------------||------------------------------------|
3:39|------------------------------------------2~---||-3--2~----3-2-0~----3-2~----3-2-0-2-0~---------||-----------------------------------------------||-----------------------------------------------||-----------------------------------------------||-----------------------------------------------|
3:54|---------------------------------------------||-3--2~----3-2-0~----3-2~----3-2-0-2-0h2p0~---||---------------------------------------------||---------------------------------------------||---------------------------------------------||---------------------------------------------|
4:08 (with flange)|----------------------||----------------------||----------------------||-(9)------------------||-(9)-*volume swell*---||-(9)------------------|
4:12 (distorted)|--------------------------||--------------------------| x3|--------------------------||-9-9-9-9~--12-12-12-12~---||-9-9-9-9~--12-12-12-12~---||-9-9-9-9~--12-12-12-12~---|
|------------------------------||------------------------------||------------------------------||-9p7-9p7-9p7~--12-12-12-12~---||-9p7-9p7-9p7~--12-12-12-12~---||-9p7-9p7-9p7~--12-12-12-12~---|
|------------------------------------||------------------------------------||------------------------------------||-5-5-5-5~--2-2-2-2~--5-5-5-5~--0~---||-5-5-5-5~--2-2-2-2~--5-5-5-5~--0~---||-5-5-5-5~--2-2-2-2~--5-5-5-5~--0~---|
4:24 (clean, with delay)|------------------------------------||------------------------------------| x4 (on last repeat, slide|------------------------------10~---| fingers slowly down neck)|------------------------------10~---||-7p0-5-7~--7p0-5-7~-7p0-5-7~---8~---||------------------------------------|
4:53|----------------------------------------||----------------------------------------| x6|----------------------------------------||----5---------10----------15------14~---||-3-----3--/8------8--/17------17--------||----------------------------------------|
5:48|------------------||-1~--3~-----------||---------0~--2~---||------------------||------------------||------------------|
________________________________________________________________________ 10000 Days Wings Part 2 Tab by Tool, www.Ultimate-Guitar.Com Song: 10,000 Days pt. 2 Band: Tool Album 10,000 Days Tabber: Jake-HK tuning: Dadgbe read comments for fixes
~1:37 1:48|---------|-----------------------------------------------------------||---------|-----------------------------------------------------------||---------|-----------------------------------------------------------||-7-------|-10--9--10--9---7----10--9--10--9--7----10--9--10--9---7---||---------|-----------------------------------------------------------||---------|-----------------------------------------------------------|trem. pick| Volume Swells---------------------------------------------|
2:25|----------------------------------------------------------||----------------------------------------------------------||----------------------------------------------------------||-10--9--10--9--5--5-7~~~~---10--9--10--9--5--5-7~~~-------||----------------------------------------------------------||----------------------------------------------------------| 3 times"ignorant..." Volume Swells-------------------------------|
|---------------------------------||---------------------------------||---------------7--7\9~~~~~~------||-10--9--10--9--------------------||---------------------------------||---------------------------------|"this little..." Volume Swells---|
3:15|------------------------|-------------------------||-5-----5-----5-----5----|-5-----5-----5-----5-----| <- same tempo as previous section|---5-----5-----5-----5--|-------------------------||-----7-----7-----7-----7|-----7-----7-----7-----7-||------------------------|-------------------------||------------------------|-------------------------| 4 times 2 times
|------------------------|-------------------------||-5-----5-----5-----5----|-5-----5-----5-----5-----||---5-----5-----5-----5--|-------------------------||-----7-----7-----7-----7|-----7-----7-----7-----7-||------------------------|-------------------------||------------------------|-------------------------| 4 times 2 times
3:40|------------------------|-----------------------------------------------------------------------------||-5-----5-----5-----5----|-6-----8--6----6-5-----5--8--5-----5-----5-----5-----5-----5-----5-----5-----||---5-----5-----5-----5--|---5--------5-------7--------------------------------------------------------||-----7-----7-----7-----7|-----7--------7-----------------7-----7-----7-----7-----7-----7-----7-----7--||------------------------|-----------------------------------------------------------------------------|2x|------------------------|-----------------------------------------------------------------------------| 2 times
4:04|------------------------|----------------------------||-5-----5-----5-----5----|-6-----8--6----6-5-----5--8-||---5-----5-----5-----5--|---5--------5-------7-------||-----7-----7-----7-----7|-----7--------7-------------||------------------------|----------------------------||------------------------|----------------------------| 2 times
|------------------------|-----------------------------------------------------------------------------||-5-----5-----5-----5----|-6-----8--6----6-5-----5--8--5-----5-----5-----5-----5-----5-----5-----5-----||---5-----5-----5-----5--|---5--------5-------7--------------------------------------------------------||-----7-----7-----7-----7|-----7--------7-----------------7-----7-----7-----7-----7-----7-----7-----7--||------------------------|-----------------------------------------------------------------------------||------------------------|-----------------------------------------------------------------------------| 2 times
|-------------------------------------------------||-5-----5-----5-----5-----8-----5-----5-----5-----||-------------------------------------------------||-----7-----7-----7-----7-----7-----7-----7-----7-||-------------------------------------------------||-------------------------------------------------|
|------------------------|-----------------------------------------------------------------------------||-5-----5-----5-----5----|-6-----8--6----6-5-----5--8--5-----5-----5-----5-----5-----5-----5-----5-----||---5-----5-----5-----5--|---5--------5-------7--------------------------------------------------------||-----7-----7-----7-----7|-----7--------7-----------------7-----7-----7-----7-----7-----7-----7-----7--||------------------------|-----------------------------------------------------------------------------||------------------------|-----------------------------------------------------------------------------| 2 times "ten thousand.."
|-------------------------------------------------||-5-----5-----5-----5-----8-----5-----8-----5-----||-------------------------------------------------||-----7-----7-----7-----7-----7-----7-----7-----7-||-------------------------------------------------||-------------------------------------------------|
4:45|------------------------|-------------------------||-5-----5-----5-----5----|-5-----5-----5-----5-----||---5-----5-----5-----5--|-------------------------||-----7-----7-----7-----7|-----7-----7-----7-----7-||------------------------|-------------------------| 2x|------------------------|-------------------------| 4 times 2 times
|------------------------|-----------------------------------------------------------------------------||-5-----5-----5-----5----|-6-----8--6----6-5-----5--8--5-----5-----5-----5-----5-----5-----5-----5-----||---5-----5-----5-----5--|---5--------5-------7--------------------------------------------------------||-----7-----7-----7-----7|-----7--------7-----------------7-----7-----7-----7-----7-----7-----7-----7--||------------------------|-----------------------------------------------------------------------------|2x|------------------------|-----------------------------------------------------------------------------| 2 times
5:38|-----|-------------------------------------------------|-------------------------||-----|-------------------------------------------------|-------------------------||-----|-5-----5-----5-----5-----4-----4-----4-----4-----|-------------------------||-----|---7-7---7-7---7-7---7-7---7-7---7-7---7-7---7-7-|-7-----5-----7-----7-----||-(0)-|-------------------------------------------------|---0-0---0-0---0-0---0-0-||-----|-------------------------------------------------|-------------------------|Dist. 2 times let g string ring | 2 timesvol. swell
|-------------------------------------------------|--------------------------------------------------||-------------------------------------------------|--------------------------------------------------||-5-----5-----5-----5-----4-----4-----4-----4-----|--------------------------------------------------||---7-7---7-7---7-7---7-7---7-7---7-7---7-7---7-7-|-7-----5-----7-----7-----7-----5-----7-----8------||-------------------------------------------------|---0-0---0-0---0-0---0-0---0-0---0-0---0-0---0-0--||-------------------------------------------------|--------------------------------------------------| 2 times let d string ring---------------------------------|
6:02|--------------------------------------------------||--------------------------------------------------||-5-----5-----5-----5-----4-----4-----4-----4------||---7-7---7-7---7-7---7-7---7-7---7-7---7-7---7-7--||--------------------------------------------------||--------------------------------------------------|
|--------------------------------------------------|--------------------------------------------||--------------------------------------------------|-------------0---------------------0--------||-5-----5-----5-----5-----7-----7-----4-----4------|--------------------------------------------||---7-7---7-7---7-7---7-7---7-7---7-7---7-7---7-7--|-7-----5---------5-----7-----5--------5-----||--------------------------------------------------|---0-0---0-0-------0-0---0-0---0-0------0-0-||--------------------------------------------------|--------------------------------------------|
|--------------------------------------------------||--------------------------------------------------||-5-----5-----5-----5-----4-----4-----4-----4------||---7-7---7-7---7-7---7-7---7-7---7-7---7-7---7-7--||--------------------------------------------------||--------------------------------------------------|
|------------------------------------------------------------------------||------------------------------------------------------------------------||-5-----5-----5-----5-----7-----7-----4----------------------------------||---7-7---7-7---7-7---7-7---7-7---7-7-----7-7-7-7-7-7-7-7-7~~~~~~~~~-----||------------------------------------------------------------------------||------------------------------------------------------------------------| *wah-wah
6:27 Solo outline, w/wah & delay|------------------------------------------------------------------------------------------------------||------------------------------------------------------------------------------------------------------||---------------------------------------------------9\\14~~~~12~~~~14~~15~~~17~~~~14h15p14-15p14-15p14~||-\10~~~~~~~~--10//0-----\10~-10\15~~-14~~~~~~-10\0----------------------------------------------------||------------------------------------------------------------------------------------------------------||------------------------------------------------------------------------------------------------------|
|---------------------------------------------------------------------||---------------------------------------------------------------------||---------------------------------------------------------------------||-(14)-------(9)---9h10~~~~~(9)9h10~~~~9h10p9-10p9~~~~~~~~~~~~~~~~~~--||---------------------------------------------------------------------||---------------------------------------------------------------------| (trem pick)
|--------------------------------------------------------------||--------------------------------------------------------------||--------------------------------------------------------------||-\10~~~-10p9~~~-10~~~~-10p9~~~~~-5--5h7-5h7-5h7-5h7-5h7p5h7---||--------------------------------------------------------------|2x|--------------------------------------------------------------|
|---------------------------------------------------------------||---------------------------------------------------------------||--------------------------------7--7h9-7h9-7h9-7h9-7h9p7h9-----||-\10~~~-10p9~~~-10~~~~-10p9~~~~~-------------------------------||---------------------------------------------------------------||---------------------------------------------------------------|
|--------------------------------------------------------------------||--------------------------------------------------------------------||--------------------------------7--7h9-7h9-7h9-7h9-7h9-7h9-7h9~^----||-\10~~~-10p9~~~-10~~~~-10p9~~~~~------------------------------------||--------------------------------------------------------------------||--------------------------------------------------------------------|
8:21|--------------------------------||--------------------------------||--------------------------------||-7---5---7---10---3-----0---3---||-7---5---7---10---3-----0---3---||-7---5---7---10---3-----0---3---|Heavylet ring
|----------------------------------------------------------------------------------------------||-10-101010-8--8-8-8--10-101010-13--13-13-13---18--18--18--18--18--18--15--15--15--13--13--13--||-9--9-9-9--7--7-7-7--9--9-9-9--12--12-12-12---17--17--17--17--17--17--14--14--14--12--12--12--||-7--7-7-7--5--5-5-5--7--7-7-7--10--10-10-10---15--15--15--15--15--15--12--12--12--10--10--10--||----------------------------------------------------------------------------------------------||----------------------------------------------------------------------------------------------|
|---------------------------------------------------------------------------------||-10-101010-8--8-8-8--10-101010-13--13-13-13--------------------------------------||-9--9-9-9--7--7-7-7--9--9-9-9--12--12-12-12---5--5--5--5--5--5-----------7--7--7-||-7--7-7-7--5--5-5-5--7--7-7-7--10--10-10-10---3--3--3--3--3--3--0--0--0--5--5--5-||----------------------------------------------3--3--3--3--3--3--0--0--0--5--5--5-||----------------------------------------------3--3--3--3--3--3--0--0--0--5--5--5-|
8:51|--------------------------------------||--------------------------------------||--------------------------------------||-7--5--7~(7)\10/7p0-h5h7p0--0h2p0-----||-7--5--7~(7)\10/7p0-h5h7p0--0h2p0-----|4x|-7--5--7~(7)\10/7p0-h5h7p0--0h2p0-----|
|---------------------------------------------||---------------------------------------------||---------------------------------------------||---------------------------------------------||---------------------------------------------||-7-7-7-5-5-5-7-7-7(7)\10/7p0-h5h7p0-0h2p0----|pm--------------------------------------------|
|--------------------------------------------------------------------------------------||--------------------------------------------------------------------------------------||--------------------------------------------------------------------------------------||--------------------------------------------------------------------------------------||-----------------------------10p7p0-0h5h7------------------------------8p5p0-10p7p0---||-7-7-7-5-5-5-7-7-7(7)\10/7p0---------------7-7-7-5-5-5-7-7-7(7)\10/7p0----------------|pm--------------------------- -------------------------------------------|
|-----------------------------------------------||-----------------------------------------------||-----------------------------------------------||-----------------------------------------------||-----------------------------------------------||-7-7-7-5-5-5-7-7-7(7)\10/7p0-10-10-10-10-10-10-|
|----------------------------------------------------||----------------------------------------------------||----------------------------------------------------||-9-9-9-9-9-9-0-0-0-0-0-0-9-9-9-9-9-9\12-12-12-12-12-||-9-9-9-9-9-9-0-0-0-0-0-0-9-9-9-9-9-9\12-12-12-12-12-|2x|-9-9-9-9-9-9-0-0-0-0-0-0-9-9-9-9-9-9\12-12-12-12-12-|
|---------------------------------------||---------------------------------------||---------------------------------------||-5-5-5-5-5-5-2-2-2-2-2-2-5-5-5-5-5-5-0-||-5-5-5-5-5-5-2-2-2-2-2-2-5-5-5-5-5-5-0-||-5-5-5-5-5-5-2-2-2-2-2-2-5-5-5-5-5-5-0-|
9:29|--------------------------------------------||--------------------------------------------||--------------------------------------------||--------------------------------------3-----||-0-----7-----0-----7-----0-----7------3-----|3x|---0-0---0-0---0-0---0-0---0-0---0-0--3-----|let A string ring -rake low to high
|------------------------------------------------------||------------------------------------------------------||------------------------------------------------------||--------------------------------------3\\4\\5\\6\\7---||-0-----7-----0-----7-----0-----7------3\\4\\5\\6\\7---||---0-0---0-0---0-0---0-0---0-0---0-0--3\\4\\5\\6\\7---|
9:58|------------------------------------||------------------------------------||------------------------------------||---5--------10-------12-15-12-14~~--||-3---(3)\\8----8\(12)---------------|5x|------------------------------------|
|-----------------------------------------------------------||-----------------------------------------------------------||-----------------------------------------------------------||---5--------10-------12-15-12-14~~~-10---12---5---7~~~~~~--||-3---(3)\\8----8\(12)--------------------------------------|End guitar|-----------------------------------------------------------|
_________________________________________________________________________ Pot Tab by Tool, www.Ultimate-Guitar.Com Band: Tool Song: The Pot Album: 10,000 Days Tabber: Chris G. Jake-HK Tunning: DADGBE :38
|-----------------------------------------------------------||-----------------------------------------------------------||-----------------------------------------------------------||-----------------------------------------------------------||-----5------5-------5------3-------5------5-------5------3-||-0-0---00-0---00-0-0--0-0-3---0-0----00-0---00-0-0--0-0-3--|
|-----------------------------------------------------------||-----------------------------------------------------------||-----------------------------------------------------------||---10^~~~~------10^~~~~------10^~~~~------10^~~~~~~--x/----||-----------------------------------------------------x/----||-0------------0------------0------------0------------x/----|
1:40|---------------------------------------------------------------------------------------------------||---------------------------------------------------------------------------------------------------||---------------------------------------------------------------------------------------------------||---------------------------------------------------------------------------------------------------||-----5------5-------5------3-----5------5--------5------3------5------3-/10---------10----------8--||-0-0---00-0---00-0-0--0-3h5--0-0---00-0---00-0-0---0-3h5---5-5---33-3---/10-10-10-10---55-5-5/8----|
|------------------------------------------------------------------------||------------------------------------------------------------------------||------------------------------------------------------------------------||------------------------------------------------------------------------||-----5------5-------5-------3------5------3-/10----------10-------------||-0-0---00-0---00-0-0--00-3h5---5-5---33-3---/10-10-10-10----1-1-1-1p0---|
|-----------------------------------------------------------||-----------------------------------------------------------||-----------------------------------------------------------||-----------------------------------------------------------||-----5------5-------5------3-------5------5-------5------3-||-0-0---00-0---00-0-0--0-0-3---0-0----00-0---00-0-0--0-3h5--|
|------------------------------------------------------------||------------------------------------------------------------||------------------------------------------------------------||---10^~~~~------10^~~~~------10^~~~~------10^~~~~~~---------||------------------------------------------------------------||-0------------0------------0------------0-------------------|
2:21|-----------------------------------------------------------||-----------------------------------------------------------||-----------------------------------------------------------||-----------------------------------------------------------||-----5------5-------5------3-------5------5-------5------3-||-0-0---00-0---00-0-0--0-0-3---0-0----00-0---00-0-0--0-0-3--|
|----------------------------------------------------------------------------||----------------------------------------------------------------------------||-----------------------------------------------------------12---2------12---||-----------------------------------------------------------10---0--x--10----||-----5------5-------5------3-------5------5-------5------3-10---0--x--10----||-0-0---00-0---00-0-0--0-0-3---0-0----00-0---00-0-0--0-3h5--10---0--x--10----| scrapes
|------------------------------------------------------------------------||------------------------------------------------------------------------||------------------------------------------------------------------------||------------------------------------------------------------------------||-----5------5-------5-------3------5------3-/10----------10----------8--||-0-0---00-0---00-0-0--00-3h5---5-5---33-3---/10-10-10-10----55-5-5/8----|
|------------------------------------------------------------------------||------------------------------------------------------------------------||------------------------------------------------------------------------||------------------------------------------------------------------------||-----5------5-------5-------3------5------3-/10----------10-------------||-0-0---00-0---00-0-0--00-3h5---5-5---33-3---/10-10-10-10----1-1-1-1p0---|
3:12|-------------------------------------------------------------||-------------------------------------------------------------||-------------------------------------------------------------||-------------------------------------------------------------||-0-0------5p0---2-2------5p0---3-3------5p0---5-5------5p0---||-0-0-xx5h7---xx-2-2-xx5h7---xx-3-3-xx5h7---xx-5-5-xx5h7---x--|x *fig1
|-------------------------------------------------------------||-------------------------------------------------------------||-------------------------------------------------------------||-------------------------------------------------------------||-0-0------5p0---2-2------5p0---3-3------5p0---5-5------5p0---||-0-0-xx5h7---xx-2-2-xx5h7---xx-3-3-xx5h7---xx-5-5-xx5h7---xx-|
|------------------------------------------------------------||------------------------------------------------------------||------------------------------------------------------------||------------------------------------------------------------||-0-0----0-0----2-2----2-2----3-3----3-3----5-5------5p0-----||-0-0-xx-0-0-xx-2-2-xx-2-2-xx-3-3-xx-3-3-xx-5-5-xx5h7---xx---|
|-------------------------------------------------------------||-------------------------------------------------------------||-------------------------------------------------------------||-------------------------------------------------------------||-0-0----0-0----2-2----2-2----3-3----3-3----5-5----8-8----3-3-||-0-0-xx-0-0-xx-2-2-xx-2-2-xx-3-3-xx-3-3-xx-5-5-xx-8-8-xx-3-3-| *fig2
3:40|---------------------------------||---------------------------------||---------------------------------||---------------------------------||------------12--------------12---||-0-0-0h10h12--12--0-0-x10h12--12-| 4xpm
|------------------------------------------------------------------||------------------------------------------------------------------||------------------------------------------------------------------||------------------------------------------------------------------||------------12---------------15---------------12-------------10-8-||-0-0-0h10h12--12--0-00-012h15--15--0-0-0h10h12--12--0-0-10h12-----| 2xpm
|----------------------------------||----------------------------------||----------------------------------||----------------------------------||------------12---------------12---||-0-0-0h10h12--12--0000-x10h12--12-| 3xpm
4:10|-------------------------------------------------------------||-------------------------------------------------------------||-------------------------------------------------------------||-------------------------------------------------------------||-0-0--------12-----8-8-8-5-7-----0-0--------12----8-8---77---||-0-0-0h10h12--12--8-----5---8---0-0-0h10h12--12-8---55--8----|
|------------------------------------------------------------||------------------------------------------------------------||------------------------------------------------------------||------------------------------------------------------------||-/10-0-10/12-7-0-7/8-8----7---/10-0-10/12-7-0-7/8-8---77----||-/10-0-10/12-7-0-7/8---5h7-8--/10-0-10/12-7-0-7/8---55--8---|
4:24|----------------------------------------------------------------||----------------------------------------------------------------||----------------------------------------------------------------||----------------------------------------------------------------||----------------------------------------------------------------||-0-10h12-0-12-0-10h12-0-0--0-010h12-0-13-0-10h12-0-13-0-12p10p0-| 5xpm
|-----------------------------------------------------------------------||-----------------------------------------------------------------------||-----------------------------------------------------------------------||-----------------------------------------------------------------------||---------------------------------3h5------------5-----------------3h5--||-0-00-00--0-00--0x-00-00-0000-3h5----00000-0-000----00-00--00003h5-----|pm ph
|----------------------------------------||----------------------------------------||----------------------------------------||-----------------------3h5-----------0--||--------3h5----3----3h5---3h5--------0--||-0000-00----3h5--3h5---------3h5-3h5-0--|pm
|--------------------------------------------------||--------------------------------------------------||--------------------------------12---2------12----||--------------------------------10---0--x--10-----||-------5------5-------5------3--10---0--x--10-----||--0-0----00-0---00-0-0--0-3h5---10---0--x----10---|
|------------------------------------------------------------------------||------------------------------------------------------------------------||------------------------------------------------------------------------||------------------------------------------------------------------------||-----5------5-------5-------3------5------3-/10----------10----------8--||-0-0---00-0---00-0-0--00-3h5---5-5---33-3---/10-10-10-10----55-5-5/8----|
|------------------------------------------------------------------------||------------------------------------------------------------------------||------------------------------------------------------------------------||------------------------------------------------------------------------||-----5------5-------5-------3------5------3-/10----------10-------------||-0-0---00-0---00-0-0--00-3h5---5-5---33-3---/10-10-10-10----1-1-1-1p0---|
Fig1 2x fig2 1x
5:58|--------------------------------------||--------------------------------------||--------------------------------------||--------------------------------------||-5------3------5--------3-5--------6--||---0000---0000---0000-3-----00-38-----| 2xpm
|--------------------------------------||--------------------------------------||--------------------------------------||--------------------------------------||-5-----3-----5-------3-5--------6-----||---0-0---0-0---0-0-3-----00-38--------| 1xpm
|--------------------------------------||--------------------------------------||--------------------------------------||--------------------------------------||-5------3------5--------3-5--------6--||---0000---0000---0000-3-----00-38-----| endpm_________________________________________________________________________6. Lipan Conjuring - no guitar in this song_________________________________________________________________________Lost Keys Tab by Tool, www.Ultimate-Guitar.Com
TOOL - LOST KEYS Tabbed by: Marcelo Crispim Email: marcelo.crispim@hotmail.com Artist: Tool Song: Lost Keys (Blame Hofmann) Album: 10,000 Days Tuning: D A D B G e
0:31|--------------------------------------------------------||--------------------------------------------------------| x4|-------------------------------------------------0------||-------0~----------0~----------0~----------0--------0---||----0-----------3-----------0-----------3-----3---------||-0-----------5-----------0-----------5------------------|
1:30|------------------------------||------------------------------| x3|-----------------------0------||-------0~--------0--------0---||----0---------3-----3---------||-0---------5------------------|
1:51|---------------------------------------------------||---------------------------------------------------| x2|--------------------------------------------0------||-------0~--------0~--------0~--------0---------0---||----0---------3---------0---------3-----3\---------||-0---------5---------0---------5-------------------|
2:20|---------------------------------------------------------||---------------------------------------------------------||---------------------------------2~----------------0-----||-------0~--------0~--------0~---------------0---------0--||----0---------3---------0----------------3-----3\--------||-0---------5---------0---------------/5------------------|
2:35|-------------------------------||-------------------------------||------------------------0------||-------0~--------0---------0---||----0---------3-----3\---------||-0---------5-------------------|
2:42|-------------------------------------||-------------------------------------||-------------2~---------------0------||-------0~--------------0---------0---||----0---------------3-----3\---------||-0---------------5-------------------|
2:49|-----------------------------------------||-----------------------------------------||-------------0h2~p0---------------0------||-------0~------------------0---------0---||----0-------------------3-----3\---------||-0-------------------5-------------------|
2:55|---------------------------------------------------------||---------------------------------------------------------||---------------------------------2~----------------0-----||-------0~--------0~--------0~---------------0---------0--||----0---------3---------0----------------3-----3\--------||-0---------5---------0---------------/5------------------|
3:10|-------------------------------------------------------------||-------------------------------------------------------------||---------------------------------0h2~p0----------------0-----||-------0~--------0~--------0~-------------------0---------0--||----0---------3---------0--------------------3-----3\--------||-0---------5---------0-------------------/5------------------|
3:25|--------------------------------------------------------------||--------------------------------------------------------------||--------------------------------------------0-----------------||-------0~--------0~--------0~--------0---------0--------------||----0---------3---------0---------3-----3\--------------------||-0---------5---------0---------5------------------0(feedback)-|
I'll soon tab out the background (adjusted for the guitar... maybe it's a synth). ________________________________________________________________________ Rosetta Stoned Tab by Tool, www.Ultimate-Guitar.Com Song: Rosetta Stoned Band: Tool Album: 10,000 Days Tabber: Chris - Jake-HK (Read the comments for fixes)
:03E--------------------------------------------------|B--------------------------------------------------|G--------------------------------------------------|D--------------------------------------------------|A-----3-5~~~~~~------3-5----------------3-5p3p0----|D-3-5------------3-5-----0~~~~~~----3-5------------|
|-----------------------||-----------------------||-----------------------||-------------3---------||-------------3-5p3p0---||-0-3-5-0-3-5-----------| 8xpm-
|-------------||-------------||-------------||-------------||-------3-5---||-0-3-5-------| 8x
|-----------------------||-----------------------||-----------------------||-------------3---------||-------------3-5p3p0---||-0-3-5-0-3-5-----------| 8x
|-------------||-------------||-------------||-------------||-------3-5---||-0-3-5-------| 8x
|-----------------------||-----------------------||-----------------------||-------------3---------||-------------3-5p3p0---||-0-3-5-0-3-5-----------| 8x
|-------------||-------------||-------------||-------------||-------3-5---||-0-3-5-------| 8x
1:51|------------||------------||-------5-7--||-----5------||-5-8--------||------------| 8x
|------------------------|-----------------------||------------------------|-----------------------||------------------------|-----------------------||------------------------|-----------------------||----------------3-5p3p0-|-----------------3-5---||-0-3-0-3-5--3-5---------|-0-3-5-3-5-0-3-5-------| 3 times
2:13|--------------------------|--------------------------||--------------------------|--------------------------||--------------------------|--------------------------||------------------3-------|--------------------------||-0-3-0-3-5----3-5-3-5p3p0-|-0-3-0-3-5-------3-5p3p0--||-0-3-0-3-5--xx3-5---------|-0-3-0-3-5-xxxxxx---------| (3 times)
|---------------------------------------------------------------------------------||---------------------------------------------------------------------------------||---------------------------------------------------------------------------------||---------------------------------------------------------------------------------||-----3---0-----3----------3---0-----3--------3---0-----3---------3---0-----3-----||-0-3---0---0-3---3h5--0-3---0---0-3---3h53h5---0---0-3---3h5-0-3---0---0-3---3h5-|pm
|-----------------------|------------------------------------------||-----------------------|------------------------------------------||-----------------------|------------------------------------------||----15---12-----3------|-----15---12-----15---12------------------||----15---12-----3------|-----15---12-----15---12-----8------------||0-0-15-0-12-0-0-3-h5\7-|-0-0-15-0-12-0-0-15-0-12-0-0---10~~-------| pm (3 times)
2:43|-------------------------------|-----------||-------------------------------|-----------||-------------------------------|-----------||-0-3\\10-0-12-0-3\\10----------|-0~~-------||-0-3\\10-0-12-0-3\\10-0-10h12--|-0~~~------||-0-3\\10-0-12-0-3\\10-0-10h12--|-0~~-------| 3 times, 4th end with
2:59|-----------------------|-----------------------|---------------||-----------------------|-----------------------|---------------||-----------------------|-----------------------|---------------||-----2-----0-----2-----|-----------------------|-0-0--00-0-00--||---0-----3-----0-----3-|-0-0---3-3---0-0---3-3-|-0-0--00-0-00--||-0-----3-----0-----3---|-0-0-xx3-3-xx0-0-xx3-3-|-0-0--00-0-00--|pm 16 times 3 times
|-----------------------|-----------------------|---------------||-----------------------|-----------------------|---------------||-----------------------|-----------------------|---------------||-----2-----0-----2-----|-----------------------|-0-0--00-0-00--||---0-----3-----0-----3-|-0-0---3-3---0-0---3-3-|-0-0--00-0-00--||-0-----3-----0-----3---|-0-0-xx3-3-xx0-0-xx3-3-|-0-0--00-0-00--|pm 12 times 3 times
4:50|----------------------------------------|----------------------||----------------------------------------|----------------------||----------------------------------------|----------------------||--------0----------0----------0---------|----2-----0-----2-----||-------------------------------------0--|--0-----3-----0-----3-||-0h3-0h3-h3-0h3-0h3-h3-0h3-0h3-h3-0h3-h3|0-----3-----0-----3---|
3 times|-----------------------------|----------------------||-----------------------------|----------------------||-----------------------------|----------------------||-----------------------------|----2-----0-----2-----||-0-3---7-5-3---0-3---7-8-3p0-|--0-----3-----0-----3-||-0-3\7-------3-0-3\7---------|0-----3-----0-----3---|
5:17|-----------------------|------------------------------||-----------------------|------------------------------||-----------------------|------------------------------||-----------------------|-------------12-12-10\12------||-0-0---3-3---0-0---3-3-|-0-0---3-3--\12-12-10\12------||-0-0-xx3-3-xx0-0-xx3-3-|-0-0-xx3-3--\12-12-10\12------|
3 times|-----------------------|---------------------------------------------|-----|-------||-----------------------|---------------------------------------------|-----|-------||-----------------------|---------------------------------------------|-----|-------||-0-0---3-3---0-0---3-3-|-0-0---3-3---0-0---8-8-0-0---3-3---0-0---3-3-|-0-0-|0--0-0-||-0-0---3-3---0-0---3-3-|-0-0---3-3---0-0---8-8-0-0---3-3---0-0---3-3-|-0-0-|0--0-0-||-0-0---3-3---0-0---3-3-|-0-0---3-3---0-0---8-8-0-0---3-3---0-0---3-3-|-0-0-|0--0-0-| 2 times 15x
6:03|---------------------------|------------------------------|---------------------------||---------------------------|------------------------------|---------------------------||---------------------------|------------------------------|---------------------------||-----------10-----------10-|-----------10-----------10h12-|-----------10-----------10-||------10h12--------10h12---|------10h12--------10h12------|------10h12--------10h12---||-10h12--------10h12--------|-10h12--------10h12-----------|-10h12--------10h12--------|
16 times 4 times 8 times6:47|------------------------------|--------------------------------------------------||------------------------------|--------------------------------------------------||------------------------------|--------------------------------------------------||-----------10-----------10h12-|-----------10~p0~~~~------------10~p0~~~~---------||------10h12--------10h12------|------10h12----------------10h12------------------||-10h12--------10h12-----------|-10h12----------------10h12-----------------0-----| 4 times 2 times end w/ scrapes
rough outline of solo7:20|--------------------------------------------------------------------------------||-4~~~~~~~3~~~~~~~4~~~~~~6~~~~~~3h4p3~~~~~-\\\\11~~10~~8-8-11-11-10~~~~~~~-------||--------------------------------------------------------------------------------||--------------------------------------------------------------------------------||--------------------------------------------------------------------------------||--------------------------------------------------------------------------------|
|-------------------------------------------------||-6~~~~~\8~~~~~~~~~~~~-----4-4-3~~~~~~~~~---------||----------------------5-5------------------------||-------------------------------------------------||-------------------------------------------------||-------------------------------------------------|
8:14 |-
Tap to rate this tab
 
# A B C D E F G H I J K L M N O P Q R S T U V W X Y Z